0
SECTION
2
HEADER
9
$INSUNITS
70
4
9
$ACADVER
1
AC1014
9
$HANDSEED
5
FFFF
0
ENDSEC
0
SECTION
2
TABLES
0
TABLE
2
VPORT
5
8
100
AcDbSymbolTable
0
ENDTAB
0
TABLE
2
LTYPE
5
5
100
AcDbSymbolTable
0
LTYPE
5
14
100
AcDbSymbolTableRecord
100
AcDbLinetypeTableRecord
2
BYBLOCK
70
0
0
LTYPE
5
15
100
AcDbSymbolTableRecord
100
AcDbLinetypeTableRecord
2
BYLAYER
70
0
0
ENDTAB
0
TABLE
2
LAYER
5
2
100
AcDbSymbolTable
70
2
0
LAYER
5
50
100
AcDbSymbolTableRecord
100
AcDbLayerTableRecord
2
0
70
0
6
CONTINUOUS
0
ENDTAB
0
TABLE
2
STYLE
5
3
100
AcDbSymbolTable
70
1
0
STYLE
5
11
100
AcDbSymbolTableRecord
100
AcDbTextStyleTableRecord
2
STANDARD
70
0
0
ENDTAB
0
TABLE
2
VIEW
5
6
100
AcDbSymbolTable
70
0
0
ENDTAB
0
TABLE
2
UCS
5
7
100
AcDbSymbolTable
70
0
0
ENDTAB
0
TABLE
2
APPID
5
9
100
AcDbSymbolTable
70
2
0
APPID
5
12
100
AcDbSymbolTableRecord
100
AcDbRegAppTableRecord
2
ACAD
70
0
0
ENDTAB
0
TABLE
2
DIMSTYLE
5
A
100
AcDbSymbolTable
70
1
0
ENDTAB
0
TABLE
2
BLOCK_RECORD
5
1
100
AcDbSymbolTable
70
1
0
BLOCK_RECORD
5
1F
100
AcDbSymbolTableRecord
100
AcDbBlockTableRecord
2
*MODEL_SPACE
0
BLOCK_RECORD
5
1B
100
AcDbSymbolTableRecord
100
AcDbBlockTableRecord
2
*PAPER_SPACE
0
ENDTAB
0
ENDSEC
0
SECTION
2
BLOCKS
0
BLOCK
5
20
100
AcDbEntity
100
AcDbBlockBegin
2
*MODEL_SPACE
0
ENDBLK
5
21
100
AcDbEntity
100
AcDbBlockEnd
0
BLOCK
5
1C
100
AcDbEntity
100
AcDbBlockBegin
2
*PAPER_SPACE
0
ENDBLK
5
1D
100
AcDbEntity
100
AcDbBlockEnd
0
ENDSEC
0
SECTION
2
ENTITIES
0
SPLINE
5
100
100
AcDbEntity
8
0
100
AcDbSpline
70
1064
71
5
72
21
73
15
74
0
42
0.000000001
43
0.0000000001
44
0.0000000001
40
-1
40
-1
40
-1
40
-1
40
-1
40
-1
40
-0.96666666666666656
40
-0.93333333333333324
40
-0.89999999999999991
40
-0.86666666666666659
40
-0.83333333333333326
40
-0.79999999999999993
40
-0.76666666666666661
40
-0.73333333333333328
40
-0.69999999999999996
40
-0.66920604548352736
40
-0.66920604548352736
40
-0.66920604548352736
40
-0.66920604548352736
40
-0.66920604548352736
40
-0.66920604548352736
10
16.973877746179355
20
-67.839387146459046
30
0
10
18.308621248125149
20
-67.079772534090836
30
0
10
20.889009358454487
20
-65.695630520740679
30
0
10
24.492295108319169
20
-64.024678711199627
30
0
10
28.761112847427267
20
-62.608736912250933
30
0
10
33.208405537947847
20
-62.185066148803557
30
0
10
36.788427921341039
20
-63.071542942349808
30
0
10
39.551814197569641
20
-65.184225662656331
30
0
10
41.590086532514562
20
-68.37236984763058
30
0
10
43.048112455939709
20
-72.398251915757768
30
0
10
44.119308560197851
20
-76.849273718776629
30
0
10
44.876921576743072
20
-80.468375306165726
30
0
10
45.493418580181419
20
-83.034407199415995
30
0
10
45.949100805508458
20
-84.621963479412415
30
0
10
46.182217577868165
20
-85.356655389135113
30
0
0
ARC
5
101
100
AcDbEntity
8
0
100
AcDbCircle
10
82.242829601483791
20
28.247403783427441
30
0
40
119.1899744106078
100
AcDbArc
50
241.87389007659317
51
252.38933214025417
0
SPLINE
5
102
100
AcDbEntity
8
0
100
AcDbSpline
70
1064
71
2
72
6
73
3
74
0
42
0.000000001
43
0.0000000001
44
0.0000000001
40
-2.0542731065936666
40
-2.0542731065936666
40
-2.0542731065936666
40
-0.51609006139695268
40
-0.51609006139695268
40
-0.51609006139695268
10
26.055028321124595
20
-76.867680706283721
30
2.2204460492503131e-15
10
23.105134292931268
20
-73.193173936221072
30
0
10
16.973877746179358
20
-67.839387146459003
30
0
0
LINE
5
103
100
AcDbEntity
8
0
100
AcDbLine
10
16.658298464773367
20
-52.083456435739507
30
0
11
16.658298464773367
21
-35.188792983200941
31
0
0
SPLINE
5
104
100
AcDbEntity
8
0
100
AcDbSpline
70
1064
71
5
72
21
73
15
74
0
42
0.000000001
43
0.0000000001
44
0.0000000001
40
0
40
0
40
0
40
0
40
0
40
0
40
0.10000000000000001
40
0.20000000000000001
40
0.30000000000000004
40
0.40000000000000002
40
0.5
40
0.59999999999999998
40
0.69999999999999996
40
0.79999999999999993
40
0.89999999999999991
40
1
40
1
40
1
40
1
40
1
40
1
10
16.658298464773367
20
-35.188792983200941
30
0
10
17.418892740903413
20
-35.249536066342991
30
0
10
18.940487885199119
20
-35.359664125711788
30
0
10
21.224100349901704
20
-35.490782671947173
30
0
10
24.271396840942543
20
-35.596332445351095
30
0
10
28.08492946219048
20
-35.605020685287407
30
0
10
31.903262045567025
20
-35.479622473884753
30
0
10
35.726776425321013
20
-35.209471310279653
30
0
10
39.555662863212696
20
-34.789252251505786
30
0
10
43.389687394592819
20
-34.225501076005045
30
0
10
47.22845338486681
20
-33.529297730533287
30
0
10
50.302943656100958
20
-32.875192032920289
30
0
10
52.610642453783441
20
-32.333461328555522
30
0
10
54.149908837220543
20
-31.949945128212811
30
0
10
54.919742166110801
20
-31.752596216577782
30
0
0
SPLINE
5
105
100
AcDbEntity
8
0
100
AcDbSpline
70
1064
71
2
72
6
73
3
74
0
42
0.000000001
43
0.0000000001
44
0.0000000001
40
0
40
0
40
0
40
5.3900221247801188
40
5.3900221247801188
40
5.3900221247801188
10
54.919742166110801
20
-31.752596216577782
30
0
10
72.311307484900482
20
-6.1252983446513731
30
0
10
94.671891466201544
20
2.5757488518853222
30
0
0
LINE
5
106
100
AcDbEntity
8
0
100
AcDbLine
10
94.671891466201544
20
2.5757488518853195
30
0
11
94.671891466201544
21
-90.292751527607152
31
0
0
ARC
5
107
100
AcDbEntity
8
0
100
AcDbCircle
10
82.242829601483791
20
28.247403783427441
30
0
40
119.18997441060759
100
AcDbArc
50
263.47433754359724
51
275.98565268612418
0
SPLINE
5
108
100
AcDbEntity
8
0
100
AcDbSpline
70
1064
71
5
72
24
73
18
74
0
42
0.000000001
43
0.0000000001
44
0.0000000001
40
-0.42467403236842116
40
-0.42467403236842116
40
-0.42467403236842116
40
-0.42467403236842116
40
-0.42467403236842116
40
-0.42467403236842116
40
-0.39999999999999997
40
-0.36666666666666664
40
-0.33333333333333331
40
-0.29999999999999999
40
-0.26666666666666666
40
-0.23333333333333331
40
-0.19999999999999998
40
-0.16666666666666666
40
-0.13333333333333333
40
-0.10000000000000001
40
-0.066666666666666666
40
-0.033333333333333333
40
-0
40
-0
40
-0
40
-0
40
-0
40
-0
10
68.697101450708516
20
-90.170345092602929
30
0
10
69.287710305689515
20
-89.909337457515079
30
0
10
70.653018120552616
20
-89.285146376723858
30
0
10
72.694838563891125
20
-88.273137456844125
30
0
10
75.132029502425596
20
-86.870701199070226
30
0
10
77.294514138074845
20
-85.118219550970736
30
0
10
78.221007246551466
20
-83.339522409699896
30
0
10
77.639974565326412
20
-81.665293974833929
30
0
10
75.660748023816026
20
-80.162360730734932
30
0
10
72.631803040887647
20
-78.932869126147708
30
0
10
69.013026470226961
20
-78.089827821545029
30
0
10
65.284651789663087
20
-77.741655789782186
30
0
10
61.829084845026131
20
-77.970435179561392
30
0
10
58.863726862389782
20
-78.820598035182712
30
0
10
56.970480565256935
20
-80.013831932109099
30
0
10
55.834742226846998
20
-81.199211924903452
30
0
10
55.203721375918533
20
-82.118333925710076
30
0
10
54.919742166110801
20
-82.610111452122865
30
0
0
SPLINE
5
109
100
AcDbEntity
8
0
100
AcDbSpline
70
1064
71
5
72
21
73
15
74
0
42
0.000000001
43
0.0000000001
44
0.0000000001
40
-1
40
-1
40
-1
40
-1
40
-1
40
-1
40
-0.89999999999999991
40
-0.79999999999999993
40
-0.69999999999999996
40
-0.59999999999999998
40
-0.5
40
-0.40000000000000002
40
-0.30000000000000004
40
-0.20000000000000001
40
-0.10000000000000001
40
-0
40
-0
40
-0
40
-0
40
-0
40
-0
10
54.919742166110801
20
-82.610111452122865
30
0
10
54.566776394990853
20
-80.979635853255431
30
0
10
53.826409367941679
20
-77.803878344127241
30
0
10
52.612559199805872
20
-73.295806256529389
30
0
10
50.784035158421318
20
-67.804726688551312
30
0
10
48.123128273427099
20
-61.869253524422199
30
0
10
45.048704477865002
20
-56.956824789872016
30
0
10
41.518650203425665
20
-53.171629818821764
30
0
10
37.497428800004641
20
-50.601586592409802
30
0
10
32.981829661500399
20
-49.254638178042669
30
0
10
27.999546122611857
20
-49.062271025074189
30
0
10
23.666281078512192
20
-49.767942460407035
30
0
10
20.232596956028171
20
-50.751758863025351
30
0
10
17.863122701473987
20
-51.6064267893383
30
0
10
16.658298464773367
20
-52.083456435739507
30
0
0
ARC
5
110
100
AcDbEntity
8
0
100
AcDbCircle
10
82.242829601483791
20
28.247403783427441
30
0
40
119.18997441059821
100
AcDbArc
50
112.8335469903266
51
218.63611702678932
0
ARC
5
111
100
AcDbEntity
8
0
100
AcDbCircle
10
29.742829601481588
20
8.247403783422218
30
0
40
129.99999999999997
100
AcDbArc
50
87.245347112003628
51
269.23179983455071
0
SPLINE
5
112
100
AcDbEntity
8
0
100
AcDbSpline
70
1064
71
5
72
12
73
6
74
0
42
0.000000001
43
0.0000000001
44
0.0000000001
40
0.95149020877663537
40
0.95149020877663537
40
0.95149020877663537
40
0.95149020877663537
40
0.95149020877663537
40
0.95149020877663537
40
1
40
1
40
1
40
1
40
1
40
1
10
27.999890936088683
20
-121.7409117099662
30
0
10
28.361407061996115
20
-123.64565107576654
30
0
10
28.716445819239755
20
-125.59930606824076
30
0
10
29.065022934511635
20
-127.60172889406789
30
0
10
29.407150875832176
20
-129.65282551805652
30
0
10
29.742829601481588
20
-131.75259621657779
30
0
0
SPLINE
5
113
100
AcDbEntity
8
0
100
AcDbSpline
70
1064
71
5
72
21
73
15
74
0
42
0.000000001
43
0.0000000001
44
0.0000000001
40
0
40
0
40
0
40
0
40
0
40
0
40
0.066666666666666666
40
0.13333333333333333
40
0.20000000000000001
40
0.26666666666666666
40
0.33333333333333331
40
0.39999999999999997
40
0.46666666666666662
40
0.53333333333333333
40
0.59999999999999998
40
0.64972369692025511
40
0.64972369692025511
40
0.64972369692025511
40
0.64972369692025511
40
0.64972369692025511
40
0.64972369692025511
10
29.742829601481588
20
-131.75259621657779
30
0
10
30.898922861410352
20
-131.96109343710714
30
0
10
33.161003910339787
20
-132.31776943605843
30
0
10
36.403810097272526
20
-132.67182814631775
30
0
10
40.424727130826376
20
-132.77936419296398
30
0
10
44.927585395287927
20
-132.29919854621627
30
0
10
48.874274128227796
20
-131.2114416332758
30
0
10
52.217455436496692
20
-129.55288268260517
30
0
10
54.896132807889828
20
-127.40912009938421
30
0
10
56.837907085473532
20
-124.93347742435401
30
0
10
57.904863773923232
20
-122.50520872149748
30
0
10
58.117872339360666
20
-120.73738526030503
30
0
10
57.913099828866379
20
-119.62058177514608
30
0
10
57.633432569650097
20
-119.00318204295169
30
0
10
57.486491294072195
20
-118.7576718470003
30
0
0
ARC
5
114
100
AcDbEntity
8
0
100
AcDbCircle
10
29.742829601481588
20
8.247403783422218
30
0
40
130.0000000000087
100
AcDbArc
50
282.32242537252114
51
299.96390479839346
0
LINE
5
115
100
AcDbEntity
8
0
100
AcDbLine
10
94.67189146620143
20
-104.37682507239451
30
0
11
94.671891466201544
21
-141.75259621657779
31
0
0
LINE
5
116
100
AcDbEntity
8
0
100
AcDbLine
10
94.671891466201544
20
-141.75259621657779
30
0
11
99.742829601481588
21
-141.75259621657779
31
0
0
LINE
5
117
100
AcDbEntity
8
0
100
AcDbLine
10
99.742829601481588
20
-141.75259621657779
30
0
11
99.742829601481588
21
-101.29710771761098
31
0
0
ARC
5
118
100
AcDbEntity
8
0
100
AcDbCircle
10
29.742829601481588
20
8.247403783422218
30
0
40
129.99999999999997
100
AcDbArc
50
302.57897039280408
51
314.46356896715304
0
ARC
5
119
100
AcDbEntity
8
0
100
AcDbCircle
10
82.242829601483791
20
28.247403783427441
30
0
40
119.18997441060704
100
AcDbArc
50
278.4429421711622
51
288.87536908883021
0
LINE
5
120
100
AcDbEntity
8
0
100
AcDbLine
10
99.74282960148166
20
-89.650857442093752
30
0
11
99.742829601481588
21
9.0354731131500898
31
0
0
LINE
5
121
100
AcDbEntity
8
0
100
AcDbLine
10
99.742829601481588
20
9.0354731131500898
30
0
11
94.671891466201544
21
9.0354731131500898
31
0
0
SPLINE
5
122
100
AcDbEntity
8
0
100
AcDbSpline
70
1064
71
2
72
6
73
3
74
0
42
0.000000001
43
0.0000000001
44
0.0000000001
40
-6.2311520888860148
40
-6.2311520888860148
40
-6.2311520888860148
40
-0.42393987722267634
40
-0.42393987722267634
40
-0.42393987722267634
10
94.671891466201544
20
9.0354731131500863
30
0
10
66.536239050221738
20
-4.0621581839439518
30
0
10
54.797274817582746
20
-23.295449585685159
30
0
0
SPLINE
5
123
100
AcDbEntity
8
0
100
AcDbSpline
70
1064
71
5
72
49
73
43
74
0
42
0.000000001
43
0.0000000001
44
0.0000000001
40
-0.94150521913697593
40
-0.94150521913697593
40
-0.94150521913697593
40
-0.94150521913697593
40
-0.94150521913697593
40
-0.94150521913697593
40
-0.92500000000000049
40
-0.90000000000000047
40
-0.87500000000000044
40
-0.85000000000000042
40
-0.8250000000000004
40
-0.80000000000000038
40
-0.77500000000000036
40
-0.75000000000000033
40
-0.72500000000000031
40
-0.70000000000000029
40
-0.67500000000000027
40
-0.65000000000000024
40
-0.62500000000000022
40
-0.6000000000000002
40
-0.57500000000000018
40
-0.55000000000000016
40
-0.52500000000000013
40
-0.50000000000000011
40
-0.47500000000000014
40
-0.45000000000000012
40
-0.4250000000000001
40
-0.40000000000000008
40
-0.37500000000000006
40
-0.35000000000000003
40
-0.32500000000000001
40
-0.29999999999999999
40
-0.27499999999999997
40
-0.24999999999999997
40
-0.22499999999999998
40
-0.19999999999999998
40
-0.17499999999999999
40
-0.14999999999999999
40
-0.125
40
-0.10000000000000001
40
-0.075000000000000011
40
-0.050000000000000003
40
-0.025000000000000001
40
-0
40
-0
40
-0
40
-0
40
-0
40
-0
10
54.79727481755166
20
-23.295449585736094
30
0
10
54.418825158209536
20
-23.412731567380799
30
0
10
53.432756512667282
20
-23.717398405836249
30
0
10
51.715850568314451
20
-24.242956670112257
30
0
10
49.063876430345879
20
-25.035126244244559
30
0
10
45.240172936345701
20
-26.099541494091085
30
0
10
40.748010242798109
20
-27.164016101945144
30
0
10
36.074404554008098
20
-27.930464376034365
30
0
10
31.47598893539412
20
-28.147295250931084
30
0
10
27.225142371101583
20
-27.59077570414355
30
0
10
23.580665546254089
20
-26.117073618464147
30
0
10
20.755646376652489
20
-23.72337500957525
30
0
10
18.889505880220913
20
-20.592147527336635
30
0
10
18.010182471254836
20
-17.176615495363006
30
0
10
18.027274202325625
20
-14.150741654348842
30
0
10
18.776528684626285
20
-12.114169932702431
30
0
10
20.050197318978555
20
-11.386917928712101
30
0
10
21.636887862235127
20
-11.694296732956122
30
0
10
23.34454094304423
20
-12.120609556106183
30
0
10
24.988674131154752
20
-11.65362514620977
30
0
10
26.383039438221786
20
-9.722478901311467
30
0
10
27.343662853076278
20
-6.3592680485196418
30
0
10
27.708896508359405
20
-1.9538576632790039
30
0
10
27.354505758055737
20
2.8713299278391116
30
0
10
26.211945657084833
20
7.4396243324460194
30
0
10
24.283291014080834
20
11.163530442785724
30
0
10
21.663730215883461
20
13.733305078568609
30
0
10
18.524179963304483
20
15.094619555938863
30
0
10
15.081714986451786
20
15.362514942541416
30
0
10
11.573494832829903
20
14.755144421890458
30
0
10
8.2311515241077551
20
13.524445582463647
30
0
10
5.2506645135188768
20
11.877253405186281
30
0
10
2.7800473052276686
20
9.9417166271792361
30
0
10
0.93031937401800047
20
7.7941480737814661
30
0
10
-0.21951668587468554
20
5.4707370555675903
30
0
10
-0.6154052200858029
20
2.9843591790214941
30
0
10
-0.2218341239210142
20
0.34130039835433057
30
0
10
0.98275241532733926
20
-2.4530097850726951
30
0
10
3.0091040217981702
20
-5.3952811322060352
30
0
10
5.290369558106458
20
-7.865779285645969
30
0
10
7.3724263433967296
20
-9.7838581659576107
30
0
10
8.9252336276635624
20
-11.091525429785252
30
0
10
9.7428296014815885
20
-11.752596216577782
30
0
0
SPLINE
5
124
100
AcDbEntity
8
0
100
AcDbSpline
70
1064
71
5
72
21
73
15
74
0
42
0.000000001
43
0.0000000001
44
0.0000000001
40
-1
40
-1
40
-1
40
-1
40
-1
40
-1
40
-0.89999999999999991
40
-0.79999999999999993
40
-0.69999999999999996
40
-0.59999999999999998
40
-0.5
40
-0.40000000000000002
40
-0.30000000000000004
40
-0.20000000000000001
40
-0.10000000000000001
40
-0
40
-0
40
-0
40
-0
40
-0
40
-0
10
9.7428296014815885
20
-11.752596216577782
30
0
10
9.0880157856776211
20
-11.353456397510737
30
0
10
7.8027872945468291
20
-10.66447857657449
30
0
10
5.9481292010353348
20
-9.9588600535348064
30
0
10
3.6241407682418059
20
-9.6850195490060482
30
0
10
0.97949422185625856
20
-10.508970050216737
30
0
10
-1.3935658940948281
20
-12.549557276866189
30
0
10
-3.500120471202397
20
-15.784020153289614
30
0
10
-5.3635735428895748
20
-20.107514683721725
30
0
10
-7.0116783021524665
20
-25.395713766234781
30
0
10
-8.4710596339794986
20
-31.529344825961271
30
0
10
-9.5040119701506889
20
-37.039010981817235
30
0
10
-10.208655243912176
20
-41.485160397011185
30
0
10
-10.647780171204948
20
-44.586506959545495
30
0
10
-10.859683235676822
20
-46.171492361352414
30
0
0
ENDSEC
0
SECTION
2
OBJECTS
0
DICTIONARY
5
C
100
AcDbDictionary
3
ACAD_GROUP
350
D
3
ACAD_MLINESTYLE
350
17
0
DICTIONARY
5
D
100
AcDbDictionary
0
DICTIONARY
5
1A
330
C
100
AcDbDictionary
0
DICTIONARY
5
17
100
AcDbDictionary
0
ENDSEC
0
EOF
