0
SECTION
2
HEADER
9
$INSUNITS
70
4
9
$ACADVER
1
AC1014
9
$HANDSEED
5
FFFF
0
ENDSEC
0
SECTION
2
TABLES
0
TABLE
2
VPORT
5
8
100
AcDbSymbolTable
0
ENDTAB
0
TABLE
2
LTYPE
5
5
100
AcDbSymbolTable
0
LTYPE
5
14
100
AcDbSymbolTableRecord
100
AcDbLinetypeTableRecord
2
BYBLOCK
70
0
0
LTYPE
5
15
100
AcDbSymbolTableRecord
100
AcDbLinetypeTableRecord
2
BYLAYER
70
0
0
ENDTAB
0
TABLE
2
LAYER
5
2
100
AcDbSymbolTable
70
2
0
LAYER
5
50
100
AcDbSymbolTableRecord
100
AcDbLayerTableRecord
2
0
70
0
6
CONTINUOUS
0
ENDTAB
0
TABLE
2
STYLE
5
3
100
AcDbSymbolTable
70
1
0
STYLE
5
11
100
AcDbSymbolTableRecord
100
AcDbTextStyleTableRecord
2
STANDARD
70
0
0
ENDTAB
0
TABLE
2
VIEW
5
6
100
AcDbSymbolTable
70
0
0
ENDTAB
0
TABLE
2
UCS
5
7
100
AcDbSymbolTable
70
0
0
ENDTAB
0
TABLE
2
APPID
5
9
100
AcDbSymbolTable
70
2
0
APPID
5
12
100
AcDbSymbolTableRecord
100
AcDbRegAppTableRecord
2
ACAD
70
0
0
ENDTAB
0
TABLE
2
DIMSTYLE
5
A
100
AcDbSymbolTable
70
1
0
ENDTAB
0
TABLE
2
BLOCK_RECORD
5
1
100
AcDbSymbolTable
70
1
0
BLOCK_RECORD
5
1F
100
AcDbSymbolTableRecord
100
AcDbBlockTableRecord
2
*MODEL_SPACE
0
BLOCK_RECORD
5
1B
100
AcDbSymbolTableRecord
100
AcDbBlockTableRecord
2
*PAPER_SPACE
0
ENDTAB
0
ENDSEC
0
SECTION
2
BLOCKS
0
BLOCK
5
20
100
AcDbEntity
100
AcDbBlockBegin
2
*MODEL_SPACE
0
ENDBLK
5
21
100
AcDbEntity
100
AcDbBlockEnd
0
BLOCK
5
1C
100
AcDbEntity
100
AcDbBlockBegin
2
*PAPER_SPACE
0
ENDBLK
5
1D
100
AcDbEntity
100
AcDbBlockEnd
0
ENDSEC
0
SECTION
2
ENTITIES
0
SPLINE
5
100
100
AcDbEntity
8
0
100
AcDbSpline
70
1064
71
3
72
22
73
18
74
0
42
0.000000001
43
0.0000000001
44
0.0000000001
40
1.0107076739077876
40
1.0107076739077876
40
1.0107076739077876
40
1.0107076739077876
40
4.4885549964583964
40
4.4885549964583964
40
6.6136615813347621
40
6.6136615813347621
40
8.6443227042010076
40
8.6443227042010076
40
11.221193404817155
40
11.221193404817155
40
12.830315485451205
40
12.830315485451205
40
14.105426815392759
40
14.105426815392759
40
15.560628900697365
40
15.560628900697365
40
17.369965729543985
40
17.369965729543985
40
17.369965729543985
40
17.369965729543985
10
-16.441682246813698
20
-58.451618648047784
30
0
10
-18.615426709484492
20
-46.998694829374926
30
0
10
-21.402201605336852
20
-35.877990549321943
30
0
10
-27.312812955322698
20
-22.321331695369757
30
0
10
-29.590487677923285
20
-18.857931505134999
30
0
10
-33.998374832134324
20
-14.159269341724237
30
0
10
-36.103150123068893
20
-12.85897175023166
30
0
10
-40.617698436121429
20
-10.85675408646523
30
0
10
-43.04690302768131
20
-10.374597957823894
30
0
10
-46.648690348421056
20
-8.9663073557518835
30
0
10
-47.967046271702749
20
-8.269399996513167
30
0
10
-50.12812319245279
20
-6.2696552335186695
30
0
10
-51.027597144646471
20
-5.1097722225062903
30
0
10
-52.749455792099305
20
-1.6955293221084311
30
0
10
-53.564490534124175
20
0.73354941360595838
30
0
10
-54.938780752186098
20
8.2286132232882103
30
0
10
-55.223070174284992
20
12.919826444376801
30
0
10
-55.301256418579207
20
17.117800700565986
30
0
0
SPLINE
5
101
100
AcDbEntity
8
0
100
AcDbSpline
70
1064
71
5
72
12
73
6
74
0
42
0.000000001
43
0.0000000001
44
0.0000000001
40
0.95149020877663537
40
0.95149020877663537
40
0.95149020877663537
40
0.95149020877663537
40
0.95149020877663537
40
0.95149020877663537
40
1
40
1
40
1
40
1
40
1
40
1
10
-16.441682246813698
20
-58.451618648047798
30
0
10
-16.08016612090627
20
-60.356358013848137
30
0
10
-15.725127363662628
20
-62.310013006322365
30
0
10
-15.376550248390748
20
-64.31243583214949
30
0
10
-15.034422307070209
20
-66.363532456138117
30
0
10
-14.698743581420795
20
-68.463303154659371
30
0
0
SPLINE
5
102
100
AcDbEntity
8
0
100
AcDbSpline
70
1064
71
5
72
21
73
15
74
0
42
0.000000001
43
0.0000000001
44
0.0000000001
40
0
40
0
40
0
40
0
40
0
40
0
40
0.066666666666666666
40
0.13333333333333333
40
0.20000000000000001
40
0.26666666666666666
40
0.33333333333333331
40
0.39999999999999997
40
0.46666666666666662
40
0.53333333333333333
40
0.59999999999999998
40
0.64972369692025511
40
0.64972369692025511
40
0.64972369692025511
40
0.64972369692025511
40
0.64972369692025511
40
0.64972369692025511
10
-14.698743581420795
20
-68.463303154659371
30
0
10
-13.542650321492031
20
-68.671800375188724
30
0
10
-11.280569272562598
20
-69.028476374140013
30
0
10
-8.0377630856298605
20
-69.382535084399336
30
0
10
-4.0168460520760068
20
-69.490071131045582
30
0
10
0.48601221238554038
20
-69.009905484297875
30
0
10
4.4327009453254052
20
-67.922148571357383
30
0
10
7.7758822535943128
20
-66.263589620686773
30
0
10
10.454559624987443
20
-64.119827037465811
30
0
10
12.396333902571151
20
-61.644184362435595
30
0
10
13.463290591020849
20
-59.215915659579075
30
0
10
13.676299156458285
20
-57.448092198386632
30
0
10
13.471526645964001
20
-56.331288713227678
30
0
10
13.191859386747723
20
-55.713888981033293
30
0
10
13.044918111169817
20
-55.468378785081889
30
0
0
SPLINE
5
103
100
AcDbEntity
8
0
100
AcDbSpline
70
1064
71
3
72
14
73
10
74
0
42
0.000000001
43
0.0000000001
44
0.0000000001
40
0
40
0
40
0
40
0
40
1.8126594649212602
40
1.8126594649212602
40
2.3060285328871442
40
2.3060285328871442
40
2.5931047754516858
40
2.5931047754516858
40
2.8144508996238815
40
2.8144508996238815
40
2.8144508996238815
40
2.8144508996238815
10
-5.6215736550339654
20
-58.146012048819586
30
0
10
-0.14358950592105568
20
-55.596531915854079
30
0
10
4.5305011168119709
20
-53.976610322316191
30
0
10
8.8562576636537216
20
-53.647266844380979
30
0
10
9.8564846322349453
20
-53.66488442050256
30
0
10
11.279563286487221
20
-54.030770538414394
30
0
10
11.784008743832803
20
-54.241501543807345
30
0
10
12.55342343134831
20
-54.809823931875158
30
0
10
12.831223186558468
20
-55.11133626854965
30
0
10
13.044918111165096
20
-55.468378785074023
30
0
0
SPLINE
5
104
100
AcDbEntity
8
0
100
AcDbSpline
70
1064
71
3
72
10
73
6
74
0
42
0.000000001
43
0.0000000001
44
0.0000000001
40
1.6414430753149725
40
1.6414430753149725
40
1.6414430753149725
40
1.6414430753149725
40
2.8015213109505885
40
2.8015213109505885
40
6.3343428771253913
40
6.3343428771253913
40
6.3343428771253913
40
6.3343428771253913
10
-18.386544861770446
20
-13.578387644374441
30
0
10
-16.895441477825955
20
-15.435766054176714
30
0
10
-15.773538124375238
20
-17.206176897004042
30
0
10
-11.954203617215654
20
-24.894795737293141
30
0
10
-9.8999873882832112
20
-33.604233969554755
30
0
10
-5.6215736550339654
20
-58.146012048819586
30
0
0
SPLINE
5
105
100
AcDbEntity
8
0
100
AcDbSpline
70
1064
71
2
72
6
73
3
74
0
42
0.000000001
43
0.0000000001
44
0.0000000001
40
-2.0542731065936666
40
-2.0542731065936666
40
-2.0542731065936666
40
-0.51609006139695268
40
-0.51609006139695268
40
-0.51609006139695268
10
-18.386544861777793
20
-13.578387644365311
30
2.2204460492503131e-15
10
-21.336438889971117
20
-9.9038808743026685
30
0
10
-27.467695436723023
20
-4.5500940845406026
30
0
0
SPLINE
5
106
100
AcDbEntity
8
0
100
AcDbSpline
70
1064
71
5
72
21
73
15
74
0
42
0.000000001
43
0.0000000001
44
0.0000000001
40
-1
40
-1
40
-1
40
-1
40
-1
40
-1
40
-0.96666666666666656
40
-0.93333333333333324
40
-0.89999999999999991
40
-0.86666666666666659
40
-0.83333333333333326
40
-0.79999999999999993
40
-0.76666666666666661
40
-0.73333333333333328
40
-0.69999999999999996
40
-0.66920604548352736
40
-0.66920604548352736
40
-0.66920604548352736
40
-0.66920604548352736
40
-0.66920604548352736
40
-0.66920604548352736
10
-27.467695436723034
20
-4.550094084540639
30
0
10
-26.132951934777235
20
-3.7904794721724322
30
0
10
-23.552563824447894
20
-2.4063374588222697
30
0
10
-19.949278074583212
20
-0.73538564928122163
30
0
10
-15.680460335475118
20
0.68055614966747058
30
0
10
-11.233167644954536
20
1.104226913114843
30
0
10
-7.6531452615613453
20
0.2177501195685938
30
0
10
-4.8897589853327421
20
-1.894932600737933
30
0
10
-2.85148665038782
20
-5.0830767857121817
30
0
10
-1.393460726962672
20
-9.1089588538393684
30
0
10
-0.32226462270453782
20
-13.559980656858226
30
0
10
0.43534839384069324
20
-17.179082244247326
30
0
10
1.051845397279032
20
-19.745114137497595
30
0
10
1.5075276226060708
20
-21.332670417494004
30
0
10
1.7406443949657846
20
-22.067362327216706
30
0
0
SPLINE
5
107
100
AcDbEntity
8
0
100
AcDbSpline
70
1064
71
3
72
18
73
14
74
0
42
0.000000001
43
0.0000000001
44
0.0000000001
40
3.6965908706397688
40
3.6965908706397688
40
3.6965908706397688
40
3.6965908706397688
40
4.1329438491670372
40
4.1329438491670372
40
4.4006064432035874
40
4.4006064432035874
40
4.6147273126197792
40
4.6147273126197792
40
4.8053809541626897
40
4.8053809541626897
40
5.0433052995008536
40
5.0433052995008536
40
5.1798939315679124
40
5.1798939315679124
40
5.1798939315679124
40
5.1798939315679124
10
24.255528267806127
20
-26.881052030684529
30
0
10
21.237600798273775
20
-28.214764021363425
30
0
10
17.730671413976179
20
-29.498055940845767
30
0
10
12.816100579239937
20
-30.473245192734257
30
0
10
11.238136526032193
20
-30.571237099668558
30
0
10
8.7857972665260711
20
-30.311012640598456
30
0
10
7.7386434128360326
20
-30.029083220755641
30
0
10
5.9111371656941225
20
-29.043862159630329
30
0
10
5.1802664640795859
20
-28.42623716244848
30
0
10
3.7573561746740469
20
-26.752088179019111
30
0
10
3.1219032912882172
20
-25.628109960806533
30
0
10
2.2736758985368866
20
-23.642552809783055
30
0
10
1.995998997711852
20
-22.872139087159393
30
0
10
1.740644394966584
20
-22.067362327219229
30
0
0
SPLINE
5
108
100
AcDbEntity
8
0
100
AcDbSpline
70
1064
71
5
72
24
73
18
74
0
42
0.000000001
43
0.0000000001
44
0.0000000001
40
-0.42467403236842116
40
-0.42467403236842116
40
-0.42467403236842116
40
-0.42467403236842116
40
-0.42467403236842116
40
-0.42467403236842116
40
-0.39999999999999997
40
-0.36666666666666664
40
-0.33333333333333331
40
-0.29999999999999999
40
-0.26666666666666666
40
-0.23333333333333331
40
-0.19999999999999998
40
-0.16666666666666666
40
-0.13333333333333333
40
-0.10000000000000001
40
-0.066666666666666666
40
-0.033333333333333333
40
-0
40
-0
40
-0
40
-0
40
-0
40
-0
10
24.255528267806127
20
-26.881052030684529
30
0
10
24.846137122787123
20
-26.620044395596683
30
0
10
26.211444937650228
20
-25.995853314805455
30
0
10
28.253265380988744
20
-24.983844394925718
30
0
10
30.690456319523207
20
-23.581408137151829
30
0
10
32.852940955172457
20
-21.828926489052325
30
0
10
33.779434063649077
20
-20.050229347781485
30
0
10
33.198401382424024
20
-18.376000912915522
30
0
10
31.219174840913642
20
-16.873067668816528
30
0
10
28.190229857985258
20
-15.643576064229308
30
0
10
24.57145328732458
20
-14.800534759626629
30
0
10
20.843078606760713
20
-14.452362727863779
30
0
10
17.387511662123746
20
-14.681142117642985
30
0
10
14.422153679487399
20
-15.531304973264302
30
0
10
12.528907382354543
20
-16.724538870190688
30
0
10
11.393169043944615
20
-17.909918862985048
30
0
10
10.762148193016152
20
-18.829040863791668
30
0
10
10.478168983208413
20
-19.320818390204462
30
0
0
SPLINE
5
109
100
AcDbEntity
8
0
100
AcDbSpline
70
1064
71
5
72
21
73
15
74
0
42
0.000000001
43
0.0000000001
44
0.0000000001
40
-1
40
-1
40
-1
40
-1
40
-1
40
-1
40
-0.89999999999999991
40
-0.79999999999999993
40
-0.69999999999999996
40
-0.59999999999999998
40
-0.5
40
-0.40000000000000002
40
-0.30000000000000004
40
-0.20000000000000001
40
-0.10000000000000001
40
-0
40
-0
40
-0
40
-0
40
-0
40
-0
10
10.478168983208413
20
-19.320818390204462
30
0
10
10.125203212088474
20
-17.690342791337024
30
0
10
9.3848361850392958
20
-14.514585282208845
30
0
10
8.1709860169034876
20
-10.006513194610989
30
0
10
6.3424619755189315
20
-4.5154336266329054
30
0
10
3.6815550905247219
20
1.4200395374962049
30
0
10
0.60713129496261287
20
6.3324682720463876
30
0
10
-2.9229229794767186
20
10.117663243096642
30
0
10
-6.9441443828977434
20
12.687706469508599
30
0
10
-11.459743521401986
20
14.034654883875737
30
0
10
-16.442027060290524
20
14.227022036844215
30
0
10
-20.775292104390193
20
13.52135060151137
30
0
10
-24.208976226874213
20
12.537534198893052
30
0
10
-26.578450481428398
20
11.682866272580101
30
0
10
-27.783274718129015
20
11.205836626178893
30
0
0
LINE
5
110
100
AcDbEntity
8
0
100
AcDbLine
10
-27.783274718129015
20
11.205836626178893
30
0
11
-27.783274718129015
21
28.100500078717463
31
0
0
SPLINE
5
111
100
AcDbEntity
8
0
100
AcDbSpline
70
1064
71
5
72
21
73
15
74
0
42
0.000000001
43
0.0000000001
44
0.0000000001
40
0
40
0
40
0
40
0
40
0
40
0
40
0.10000000000000001
40
0.20000000000000001
40
0.30000000000000004
40
0.40000000000000002
40
0.5
40
0.59999999999999998
40
0.69999999999999996
40
0.79999999999999993
40
0.89999999999999991
40
1
40
1
40
1
40
1
40
1
40
1
10
-27.783274718129015
20
28.100500078717463
30
0
10
-27.022680441998972
20
28.039756995575409
30
0
10
-25.501085297703266
20
27.929628936206612
30
0
10
-23.217472833000681
20
27.798510389971227
30
0
10
-20.170176341959838
20
27.692960616567312
30
0
10
-16.356643720711897
20
27.684272376631
30
0
10
-12.538311137335361
20
27.809670588033654
30
0
10
-8.7147967575813681
20
28.079821751638754
30
0
10
-4.8859103196896889
20
28.500040810412621
30
0
10
-1.0518857883095634
20
29.063791985913355
30
0
10
2.7868802019644257
20
29.75999533138512
30
0
10
5.8613704731985727
20
30.414101028998111
30
0
10
8.1690692708810673
20
30.955831733362878
30
0
10
9.7083356543181587
20
31.339347933705596
30
0
10
10.478168983208418
20
31.536696845340622
30
0
0
SPLINE
5
112
100
AcDbEntity
8
0
100
AcDbSpline
70
1064
71
2
72
6
73
3
74
0
42
0.000000001
43
0.0000000001
44
0.0000000001
40
0
40
0
40
0
40
5.3900221247801188
40
5.3900221247801188
40
5.3900221247801188
10
10.478168983208418
20
31.536696845340622
30
0
10
27.869734301998108
20
57.16399471726703
30
0
10
50.230318283299141
20
65.865041913803722
30
0
0
LINE
5
113
100
AcDbEntity
8
0
100
AcDbLine
10
50.230318283299155
20
65.865041913803736
30
0
11
50.230318283299141
21
-78.463303154659371
31
0
0
LINE
5
114
100
AcDbEntity
8
0
100
AcDbLine
10
50.230318283299141
20
-78.463303154659371
30
0
11
55.301256418579207
21
-78.463303154659371
31
0
0
LINE
5
115
100
AcDbEntity
8
0
100
AcDbLine
10
55.301256418579207
20
-78.463303154659371
30
0
11
55.301256418579207
21
72.32476617506849
31
0
0
LINE
5
116
100
AcDbEntity
8
0
100
AcDbLine
10
55.301256418579207
20
72.32476617506849
30
0
11
50.230318283299155
21
72.32476617506849
31
0
0
SPLINE
5
117
100
AcDbEntity
8
0
100
AcDbSpline
70
1064
71
2
72
6
73
3
74
0
42
0.000000001
43
0.0000000001
44
0.0000000001
40
-6.2311520888860148
40
-6.2311520888860148
40
-6.2311520888860148
40
-0.42393987722267634
40
-0.42393987722267634
40
-0.42393987722267634
10
50.230318283299155
20
72.32476617506849
30
0
10
22.094665867319353
20
59.22713487797445
30
0
10
10.355701634680358
20
39.993843476233245
30
0
0
SPLINE
5
118
100
AcDbEntity
8
0
100
AcDbSpline
70
1064
71
5
72
49
73
43
74
0
42
0.000000001
43
0.0000000001
44
0.0000000001
40
-0.94150521913697593
40
-0.94150521913697593
40
-0.94150521913697593
40
-0.94150521913697593
40
-0.94150521913697593
40
-0.94150521913697593
40
-0.92500000000000049
40
-0.90000000000000047
40
-0.87500000000000044
40
-0.85000000000000042
40
-0.8250000000000004
40
-0.80000000000000038
40
-0.77500000000000036
40
-0.75000000000000033
40
-0.72500000000000031
40
-0.70000000000000029
40
-0.67500000000000027
40
-0.65000000000000024
40
-0.62500000000000022
40
-0.6000000000000002
40
-0.57500000000000018
40
-0.55000000000000016
40
-0.52500000000000013
40
-0.50000000000000011
40
-0.47500000000000014
40
-0.45000000000000012
40
-0.4250000000000001
40
-0.40000000000000008
40
-0.37500000000000006
40
-0.35000000000000003
40
-0.32500000000000001
40
-0.29999999999999999
40
-0.27499999999999997
40
-0.24999999999999997
40
-0.22499999999999998
40
-0.19999999999999998
40
-0.17499999999999999
40
-0.14999999999999999
40
-0.125
40
-0.10000000000000001
40
-0.075000000000000011
40
-0.050000000000000003
40
-0.025000000000000001
40
-0
40
-0
40
-0
40
-0
40
-0
40
-0
10
10.355701634649277
20
39.993843476182313
30
0
10
9.9772519753071531
20
39.876561494537604
30
0
10
8.9911833297648904
20
39.571894656082158
30
0
10
7.274277385412069
20
39.04633639180615
30
0
10
4.6223032474435
20
38.254166817673848
30
0
10
0.7985997534433098
20
37.189751567827322
30
0
10
-3.6935629401042713
20
36.125276959973263
30
0
10
-8.3671686288942873
20
35.358828685884035
30
0
10
-12.965584247508261
20
35.14199781098732
30
0
10
-17.216430811800798
20
35.698517357774854
30
0
10
-20.860907636648296
20
37.17221944345426
30
0
10
-23.685926806249892
20
39.56591805234315
30
0
10
-25.552067302681472
20
42.697145534581765
30
0
10
-26.431390711647545
20
46.112677566555398
30
0
10
-26.41429898057676
20
49.138551407569565
30
0
10
-25.665044498276099
20
51.175123129215976
30
0
10
-24.391375863923827
20
51.902375133206306
30
0
10
-22.804685320667257
20
51.594996328962281
30
0
10
-21.097032239858152
20
51.168683505812218
30
0
10
-19.452899051747629
20
51.635667915708638
30
0
10
-18.058533744680595
20
53.566814160606938
30
0
10
-17.097910329826107
20
56.930025013398762
30
0
10
-16.732676674542976
20
61.335435398639397
30
0
10
-17.087067424846644
20
66.160622989757513
30
0
10
-18.229627525817552
20
70.728917394364416
30
0
10
-20.15828216882155
20
74.452823504704128
30
0
10
-22.77784296701892
20
77.022598140487005
30
0
10
-25.917393219597898
20
78.383912617857277
30
0
10
-29.359858196450599
20
78.651808004459824
30
0
10
-32.86807835007248
20
78.044437483808863
30
0
10
-36.21042165879463
20
76.813738644382056
30
0
10
-39.190908669383504
20
75.166546467104681
30
0
10
-41.661525877674713
20
73.231009689097647
30
0
10
-43.511253808884391
20
71.083441135699871
30
0
10
-44.661089868777069
20
68.760030117485996
30
0
10
-45.056978402988186
20
66.273652240939896
30
0
10
-44.663407306823402
20
63.630593460272735
30
0
10
-43.458820767575048
20
60.836283276845712
30
0
10
-41.432469161104208
20
57.89401192971237
30
0
10
-39.151203624795926
20
55.423513776272429
30
0
10
-37.069146839505656
20
53.505434895960789
30
0
10
-35.516339555238822
20
52.19776763213315
30
0
10
-34.698743581420793
20
51.536696845340622
30
0
0
SPLINE
5
119
100
AcDbEntity
8
0
100
AcDbSpline
70
1064
71
5
72
21
73
15
74
0
42
0.000000001
43
0.0000000001
44
0.0000000001
40
-1
40
-1
40
-1
40
-1
40
-1
40
-1
40
-0.89999999999999991
40
-0.79999999999999993
40
-0.69999999999999996
40
-0.59999999999999998
40
-0.5
40
-0.40000000000000002
40
-0.30000000000000004
40
-0.20000000000000001
40
-0.10000000000000001
40
-0
40
-0
40
-0
40
-0
40
-0
40
-0
10
-34.698743581420793
20
51.536696845340622
30
0
10
-35.353557397224762
20
51.935836664407667
30
0
10
-36.638785888355557
20
52.624814485343911
30
0
10
-38.493443981867046
20
53.330433008383594
30
0
10
-40.817432414660573
20
53.604273512912357
30
0
10
-43.462078961046124
20
52.780323011701668
30
0
10
-45.835139076997216
20
50.739735785052211
30
0
10
-47.941693654104782
20
47.505272908628783
30
0
10
-49.805146725791957
20
43.181778378196682
30
0
10
-51.453251485054849
20
37.893579295683622
30
0
10
-52.912632816881882
20
31.759948235957133
30
0
10
-53.945585153053074
20
26.250282080101172
30
0
10
-54.650228426814564
20
21.804132664907215
30
0
10
-55.089353354107331
20
18.702786102372908
30
0
10
-55.301256418579207
20
17.117800700565986
30
0
0
ENDSEC
0
SECTION
2
OBJECTS
0
DICTIONARY
5
C
100
AcDbDictionary
3
ACAD_GROUP
350
D
3
ACAD_MLINESTYLE
350
17
0
DICTIONARY
5
D
100
AcDbDictionary
0
DICTIONARY
5
1A
330
C
100
AcDbDictionary
0
DICTIONARY
5
17
100
AcDbDictionary
0
ENDSEC
0
EOF
