0
SECTION
2
HEADER
9
$INSUNITS
70
4
9
$ACADVER
1
AC1014
9
$HANDSEED
5
FFFF
0
ENDSEC
0
SECTION
2
TABLES
0
TABLE
2
VPORT
5
8
100
AcDbSymbolTable
0
ENDTAB
0
TABLE
2
LTYPE
5
5
100
AcDbSymbolTable
0
LTYPE
5
14
100
AcDbSymbolTableRecord
100
AcDbLinetypeTableRecord
2
BYBLOCK
70
0
0
LTYPE
5
15
100
AcDbSymbolTableRecord
100
AcDbLinetypeTableRecord
2
BYLAYER
70
0
0
ENDTAB
0
TABLE
2
LAYER
5
2
100
AcDbSymbolTable
70
2
0
LAYER
5
50
100
AcDbSymbolTableRecord
100
AcDbLayerTableRecord
2
0
70
0
6
CONTINUOUS
0
ENDTAB
0
TABLE
2
STYLE
5
3
100
AcDbSymbolTable
70
1
0
STYLE
5
11
100
AcDbSymbolTableRecord
100
AcDbTextStyleTableRecord
2
STANDARD
70
0
0
ENDTAB
0
TABLE
2
VIEW
5
6
100
AcDbSymbolTable
70
0
0
ENDTAB
0
TABLE
2
UCS
5
7
100
AcDbSymbolTable
70
0
0
ENDTAB
0
TABLE
2
APPID
5
9
100
AcDbSymbolTable
70
2
0
APPID
5
12
100
AcDbSymbolTableRecord
100
AcDbRegAppTableRecord
2
ACAD
70
0
0
ENDTAB
0
TABLE
2
DIMSTYLE
5
A
100
AcDbSymbolTable
70
1
0
ENDTAB
0
TABLE
2
BLOCK_RECORD
5
1
100
AcDbSymbolTable
70
1
0
BLOCK_RECORD
5
1F
100
AcDbSymbolTableRecord
100
AcDbBlockTableRecord
2
*MODEL_SPACE
0
BLOCK_RECORD
5
1B
100
AcDbSymbolTableRecord
100
AcDbBlockTableRecord
2
*PAPER_SPACE
0
ENDTAB
0
ENDSEC
0
SECTION
2
BLOCKS
0
BLOCK
5
20
100
AcDbEntity
100
AcDbBlockBegin
2
*MODEL_SPACE
0
ENDBLK
5
21
100
AcDbEntity
100
AcDbBlockEnd
0
BLOCK
5
1C
100
AcDbEntity
100
AcDbBlockBegin
2
*PAPER_SPACE
0
ENDBLK
5
1D
100
AcDbEntity
100
AcDbBlockEnd
0
ENDSEC
0
SECTION
2
ENTITIES
0
CIRCLE
5
100
100
AcDbEntity
8
0
100
AcDbCircle
10
127.14100490040822
20
116.0603211129051
30
0
40
79.999999999999986
0
LWPOLYLINE
5
101
100
AcDbEntity
8
0
100
AcDbPolyline
90
4
70
1
43
0.0
10
86.863757555978793
20
271.34556168370244
42
-0.09939344274335328
10
120.65923773666222
20
280.8152844998329
10
120.65923773666226
20
260.8152844998329
42
0.099393442743353919
10
86.863757555978822
20
251.3455616837025
0
LWPOLYLINE
5
102
100
AcDbEntity
8
0
100
AcDbPolyline
90
4
70
1
43
0.0
10
180.74846476160516
20
262.76630477878803
42
-0.092227280752565644
10
204.04874809959935
20
239.88521467332504
10
204.04874809959935
20
219.88521467332501
42
0.092227280752566837
10
180.74846476160505
20
242.76630477878803
0
LWPOLYLINE
5
103
100
AcDbEntity
8
0
100
AcDbPolyline
90
4
70
1
43
0.0
10
133.62277206415428
20
280.81528449983279
10
133.6227720641543
20
260.81528449983301
42
-0.0993934427433526
10
167.41825224483767
20
251.34556168370256
10
167.41825224483765
20
271.34556168370244
42
0.099393442743353141
0
LWPOLYLINE
5
104
100
AcDbEntity
8
0
100
AcDbPolyline
90
4
70
1
43
0.0
10
50.233261701217124
20
239.88521467332515
10
50.233261701217089
20
219.88521467332504
42
-0.092227280752565755
10
73.533545039211404
20
242.76630477878808
10
73.533545039211376
20
262.76630477878814
42
0.092227280752565907
0
LWPOLYLINE
5
105
100
AcDbEntity
8
0
100
AcDbPolyline
90
4
70
1
43
0.0
10
56.613320117417061
20
207.71591554855124
42
-0.13815828687220813
10
95.000000000000028
20
240
10
104.99999999999997
20
210
42
0.11605568430776712
10
72.879539582114063
20
190.84546703865374
0
LWPOLYLINE
5
106
100
AcDbEntity
8
0
100
AcDbPolyline
90
5
70
1
43
0.0
10
105.00000000000009
20
245.00000000000011
42
-0.060700349940179289
10
127.14100490040821
20
248.43145723984563
42
-0.060700349940179733
10
149.28200980081655
20
245.00000000000006
10
139.98171421577717
20
212.02307299173845
42
0.080778101559009954
10
114.30029558503921
20
212.0230729917385
0
LWPOLYLINE
5
107
100
AcDbEntity
8
0
100
AcDbPolyline
90
4
70
1
43
0.0
10
181.40247021870238
20
190.84546703865368
10
197.66868968339946
20
207.71591554855121
42
0.13815828687220821
10
159.28200980081647
20
240
10
149.28200980081644
20
209.99999999999997
42
-0.11605568430776578
0
ARC
5
108
100
AcDbEntity
8
0
100
AcDbCircle
10
34.590780232019377
20
237.48299654940195
30
0
40
18.999999999999986
100
AcDbArc
50
90.000000000000043
51
156.69461882684283
0
LINE
5
109
100
AcDbEntity
8
0
100
AcDbLine
10
17.141004900408475
20
245
30
0
11
40
21
245
31
0
0
LINE
5
110
100
AcDbEntity
8
0
100
AcDbLine
10
40
20
245
30
0
11
40
21
240
31
0
0
LINE
5
111
100
AcDbEntity
8
0
100
AcDbLine
10
40
20
240
30
0
11
17.141004900408461
21
240
31
0
0
LINE
5
112
100
AcDbEntity
8
0
100
AcDbLine
10
17.141004900408461
20
240
30
0
11
17.141004900408461
21
155
31
0
0
LINE
5
113
100
AcDbEntity
8
0
100
AcDbLine
10
17.141004900408461
20
155
30
0
11
25
21
155
31
0
0
LINE
5
114
100
AcDbEntity
8
0
100
AcDbLine
10
25
20
155
30
0
11
25
21
125
31
0
0
LINE
5
115
100
AcDbEntity
8
0
100
AcDbLine
10
25
20
125
30
0
11
17.141004900408461
21
125
31
0
0
LINE
5
116
100
AcDbEntity
8
0
100
AcDbLine
10
17.141004900408461
20
125
30
0
11
17.141004900408461
21
107.1206422258102
31
0
0
LINE
5
117
100
AcDbEntity
8
0
100
AcDbLine
10
17.141004900408461
20
107.1206422258102
30
0
11
25
21
107.1206422258102
31
0
0
LINE
5
118
100
AcDbEntity
8
0
100
AcDbLine
10
25
20
107.1206422258102
30
0
11
25
21
77.120642225810201
31
0
0
LINE
5
119
100
AcDbEntity
8
0
100
AcDbLine
10
25
20
77.120642225810201
30
0
11
17.141004900408461
21
77.120642225810201
31
0
0
LINE
5
120
100
AcDbEntity
8
0
100
AcDbLine
10
17.141004900408461
20
77.120642225810201
30
0
11
17.141004900408461
21
6.4829965494018893
31
0
0
LINE
5
121
100
AcDbEntity
8
0
100
AcDbLine
10
17.141004900408461
20
6.4829965494018893
30
0
11
237.14100490040792
21
6.4829965494018893
31
0
0
LINE
5
122
100
AcDbEntity
8
0
100
AcDbLine
10
237.14100490040792
20
6.4829965494018893
30
0
11
237.14100490040792
21
77.120642225810144
31
0
0
LINE
5
123
100
AcDbEntity
8
0
100
AcDbLine
10
237.14100490040792
20
77.120642225810144
30
0
11
229.28200980081641
21
77.120642225810144
31
0
0
LINE
5
124
100
AcDbEntity
8
0
100
AcDbLine
10
229.28200980081641
20
77.120642225810144
30
0
11
229.28200980081641
21
107.12064222581014
31
0
0
LINE
5
125
100
AcDbEntity
8
0
100
AcDbLine
10
229.28200980081641
20
107.12064222581014
30
0
11
237.14100490040792
21
107.12064222581014
31
0
0
LINE
5
126
100
AcDbEntity
8
0
100
AcDbLine
10
237.14100490040792
20
107.12064222581014
30
0
11
237.14100490040792
21
124.99999999999994
31
0
0
LINE
5
127
100
AcDbEntity
8
0
100
AcDbLine
10
237.14100490040792
20
124.99999999999994
30
0
11
229.28200980081644
21
124.99999999999994
31
0
0
LINE
5
128
100
AcDbEntity
8
0
100
AcDbLine
10
229.28200980081644
20
124.99999999999994
30
0
11
229.28200980081644
21
154.99999999999994
31
0
0
LINE
5
129
100
AcDbEntity
8
0
100
AcDbLine
10
229.28200980081644
20
154.99999999999994
30
0
11
237.14100490040792
21
154.99999999999994
31
0
0
LINE
5
130
100
AcDbEntity
8
0
100
AcDbLine
10
237.14100490040792
20
154.99999999999994
30
0
11
237.14100490040792
21
239.99999999999994
31
0
0
LINE
5
131
100
AcDbEntity
8
0
100
AcDbLine
10
237.14100490040792
20
239.99999999999994
30
0
11
214.28200980081647
21
239.99999999999997
31
0
0
LINE
5
132
100
AcDbEntity
8
0
100
AcDbLine
10
214.28200980081647
20
239.99999999999997
30
0
11
214.28200980081647
21
244.99999999999997
31
0
0
LINE
5
133
100
AcDbEntity
8
0
100
AcDbLine
10
214.28200980081647
20
244.99999999999997
30
0
11
237.14100490040792
21
244.99999999999994
31
0
0
LINE
5
134
100
AcDbEntity
8
0
100
AcDbLine
10
237.14100490040792
20
244.99999999999994
30
0
11
237.14100490040792
21
246.48299654940189
31
0
0
ARC
5
135
100
AcDbEntity
8
0
100
AcDbCircle
10
227.14100490040789
20
246.48299654940186
30
0
40
10.000000000000036
100
AcDbArc
50
0
51
89.999999999999844
0
LINE
5
136
100
AcDbEntity
8
0
100
AcDbLine
10
227.14100490040792
20
256.48299654940189
30
0
11
207.14100490040792
21
256.48299654940206
31
0
0
SPLINE
5
137
100
AcDbEntity
8
0
100
AcDbSpline
70
1064
71
2
72
6
73
3
74
0
42
0.000000001
43
0.0000000001
44
0.0000000001
40
0
40
0
40
0
40
18.071605441472009
40
18.071605441472009
40
18.071605441472009
10
47.141004900408461
20
256.48299654940189
30
0
10
125.46137771873745
20
376.49994738774262
30
0
10
207.14100490040792
20
256.48299654940206
30
0
0
LINE
5
138
100
AcDbEntity
8
0
100
AcDbLine
10
47.141004900408461
20
256.48299654940189
30
0
11
34.590780232019362
21
256.48299654940195
31
0
0
ARC
5
139
100
AcDbEntity
8
0
100
AcDbCircle
10
34.590780232019362
20
237.48299654940189
30
0
40
18.999999999999986
100
AcDbArc
50
89.999999999999972
51
156.69461882684266
0
LINE
5
140
100
AcDbEntity
8
0
100
AcDbLine
10
34.590780232019377
20
256.48299654940189
30
0
11
47.141004900408461
21
256.48299654940189
31
0
0
SPLINE
5
141
100
AcDbEntity
8
0
100
AcDbSpline
70
1064
71
2
72
6
73
3
74
0
42
0.000000001
43
0.0000000001
44
0.0000000001
40
0
40
0
40
0
40
18.071605441472009
40
18.071605441472009
40
18.071605441472009
10
47.141004900408461
20
256.48299654940189
30
0
10
125.46137771873745
20
376.49994738774262
30
0
10
207.14100490040792
20
256.48299654940206
30
0
0
LINE
5
142
100
AcDbEntity
8
0
100
AcDbLine
10
207.14100490040792
20
256.48299654940206
30
0
11
227.14100490040792
21
256.48299654940189
31
0
0
ARC
5
143
100
AcDbEntity
8
0
100
AcDbCircle
10
227.14100490040792
20
246.48299654940189
30
0
40
10
100
AcDbArc
50
0
51
90
0
LINE
5
144
100
AcDbEntity
8
0
100
AcDbLine
10
237.14100490040792
20
246.48299654940189
30
0
11
237.14100490040792
21
244.99999999999994
31
0
0
LINE
5
145
100
AcDbEntity
8
0
100
AcDbLine
10
237.14100490040792
20
244.99999999999994
30
0
11
214.28200980081647
21
244.99999999999997
31
0
0
LINE
5
146
100
AcDbEntity
8
0
100
AcDbLine
10
214.28200980081647
20
244.99999999999997
30
0
11
214.28200980081647
21
239.99999999999997
31
0
0
LINE
5
147
100
AcDbEntity
8
0
100
AcDbLine
10
214.28200980081647
20
239.99999999999997
30
0
11
237.14100490040792
21
239.99999999999994
31
0
0
LINE
5
148
100
AcDbEntity
8
0
100
AcDbLine
10
237.14100490040792
20
239.99999999999994
30
0
11
237.14100490040792
21
154.99999999999994
31
0
0
LINE
5
149
100
AcDbEntity
8
0
100
AcDbLine
10
237.14100490040792
20
154.99999999999994
30
0
11
229.28200980081644
21
154.99999999999994
31
0
0
LINE
5
150
100
AcDbEntity
8
0
100
AcDbLine
10
229.28200980081644
20
154.99999999999994
30
0
11
229.28200980081644
21
124.99999999999994
31
0
0
LINE
5
151
100
AcDbEntity
8
0
100
AcDbLine
10
229.28200980081644
20
124.99999999999994
30
0
11
237.14100490040792
21
124.99999999999994
31
0
0
LINE
5
152
100
AcDbEntity
8
0
100
AcDbLine
10
237.14100490040792
20
124.99999999999994
30
0
11
237.14100490040792
21
107.12064222581014
31
0
0
LINE
5
153
100
AcDbEntity
8
0
100
AcDbLine
10
237.14100490040792
20
107.12064222581014
30
0
11
229.28200980081641
21
107.12064222581014
31
0
0
LINE
5
154
100
AcDbEntity
8
0
100
AcDbLine
10
229.28200980081641
20
107.12064222581014
30
0
11
229.28200980081641
21
77.120642225810144
31
0
0
LINE
5
155
100
AcDbEntity
8
0
100
AcDbLine
10
229.28200980081641
20
77.120642225810144
30
0
11
237.14100490040792
21
77.120642225810144
31
0
0
LINE
5
156
100
AcDbEntity
8
0
100
AcDbLine
10
237.14100490040792
20
77.120642225810144
30
0
11
237.14100490040792
21
6.4829965494018893
31
0
0
LINE
5
157
100
AcDbEntity
8
0
100
AcDbLine
10
237.14100490040792
20
6.4829965494018893
30
0
11
17.141004900408454
21
6.4829965494018893
31
0
0
LINE
5
158
100
AcDbEntity
8
0
100
AcDbLine
10
17.141004900408454
20
6.4829965494018893
30
0
11
17.141004900408461
21
77.120642225810201
31
0
0
LINE
5
159
100
AcDbEntity
8
0
100
AcDbLine
10
17.141004900408461
20
77.120642225810201
30
0
11
25
21
77.120642225810201
31
0
0
LINE
5
160
100
AcDbEntity
8
0
100
AcDbLine
10
25
20
77.120642225810201
30
0
11
25
21
107.1206422258102
31
0
0
LINE
5
161
100
AcDbEntity
8
0
100
AcDbLine
10
25
20
107.1206422258102
30
0
11
17.141004900408461
21
107.1206422258102
31
0
0
LINE
5
162
100
AcDbEntity
8
0
100
AcDbLine
10
17.141004900408461
20
107.1206422258102
30
0
11
17.141004900408461
21
125
31
0
0
LINE
5
163
100
AcDbEntity
8
0
100
AcDbLine
10
17.141004900408461
20
125
30
0
11
25
21
125
31
0
0
LINE
5
164
100
AcDbEntity
8
0
100
AcDbLine
10
25
20
125
30
0
11
25
21
155
31
0
0
LINE
5
165
100
AcDbEntity
8
0
100
AcDbLine
10
25
20
155
30
0
11
17.141004900408461
21
155
31
0
0
LINE
5
166
100
AcDbEntity
8
0
100
AcDbLine
10
17.141004900408461
20
155
30
0
11
17.141004900408461
21
240
31
0
0
LINE
5
167
100
AcDbEntity
8
0
100
AcDbLine
10
17.141004900408461
20
240
30
0
11
40
21
240
31
0
0
LINE
5
168
100
AcDbEntity
8
0
100
AcDbLine
10
40
20
240
30
0
11
40
21
245
31
0
0
LINE
5
169
100
AcDbEntity
8
0
100
AcDbLine
10
40
20
245
30
0
11
17.141004900408468
21
245
31
0
0
CIRCLE
5
170
100
AcDbEntity
8
0
100
AcDbCircle
10
127.14100490040822
20
116.0603211129051
30
0
40
79.999999999999986
0
LWPOLYLINE
5
171
100
AcDbEntity
8
0
100
AcDbPolyline
90
4
70
1
43
0.0
10
86.863757555978793
20
271.34556168370244
42
-0.09939344274335328
10
120.65923773666222
20
280.8152844998329
10
120.65923773666228
20
260.8152844998329
42
0.099393442743354057
10
86.86375755597885
20
251.3455616837025
0
LWPOLYLINE
5
172
100
AcDbEntity
8
0
100
AcDbPolyline
90
4
70
1
43
0.0
10
180.74846476160516
20
262.76630477878803
42
-0.092227280752565644
10
204.04874809959935
20
239.88521467332504
10
204.04874809959927
20
219.88521467332507
42
0.09222728075256631
10
180.74846476160508
20
242.76630477878803
0
LWPOLYLINE
5
173
100
AcDbEntity
8
0
100
AcDbPolyline
90
4
70
1
43
0.0
10
133.62277206415428
20
260.8152844998329
10
133.62277206415428
20
280.81528449983279
42
-0.099393442743353169
10
167.41825224483762
20
271.34556168370244
10
167.41825224483767
20
251.34556168370253
42
0.099393442743352767
0
LWPOLYLINE
5
174
100
AcDbEntity
8
0
100
AcDbPolyline
90
4
70
1
43
0.0
10
50.233261701217124
20
219.88521467332504
10
50.233261701217167
20
239.88521467332507
42
-0.092227280752565866
10
73.533545039211404
20
262.76630477878808
10
73.533545039211376
20
242.76630477878808
42
0.092227280752565755
0
LWPOLYLINE
5
175
100
AcDbEntity
8
0
100
AcDbPolyline
90
4
70
1
43
0.0
10
56.613320117417061
20
207.71591554855124
42
-0.13815828687220813
10
95.000000000000028
20
240
10
104.99999999999993
20
209.99999999999997
42
0.11605568430776719
10
72.879539582114063
20
190.84546703865371
0
LWPOLYLINE
5
176
100
AcDbEntity
8
0
100
AcDbPolyline
90
5
70
1
43
0.0
10
105.00000000000009
20
245.00000000000011
42
-0.060700349940179289
10
127.14100490040821
20
248.43145723984563
42
-0.060700349940179733
10
149.28200980081652
20
245.00000000000006
10
139.98171421577712
20
212.02307299173845
42
0.080778101559009149
10
114.30029558503935
20
212.02307299173845
0
LWPOLYLINE
5
177
100
AcDbEntity
8
0
100
AcDbPolyline
90
4
70
1
43
0.0
10
197.66868968339946
20
207.71591554855121
10
181.40247021870238
20
190.84546703865368
42
0.11605568430776581
10
149.28200980081647
20
210
10
159.2820098008165
20
240.00000000000003
42
-0.13815828687220813
0
ENDSEC
0
SECTION
2
OBJECTS
0
DICTIONARY
5
C
100
AcDbDictionary
3
ACAD_GROUP
350
D
3
ACAD_MLINESTYLE
350
17
0
DICTIONARY
5
D
100
AcDbDictionary
0
DICTIONARY
5
1A
330
C
100
AcDbDictionary
0
DICTIONARY
5
17
100
AcDbDictionary
0
ENDSEC
0
EOF
