0
SECTION
2
HEADER
9
$INSUNITS
70
4
9
$ACADVER
1
AC1014
9
$HANDSEED
5
FFFF
0
ENDSEC
0
SECTION
2
TABLES
0
TABLE
2
VPORT
5
8
100
AcDbSymbolTable
0
ENDTAB
0
TABLE
2
LTYPE
5
5
100
AcDbSymbolTable
0
LTYPE
5
14
100
AcDbSymbolTableRecord
100
AcDbLinetypeTableRecord
2
BYBLOCK
70
0
0
LTYPE
5
15
100
AcDbSymbolTableRecord
100
AcDbLinetypeTableRecord
2
BYLAYER
70
0
0
ENDTAB
0
TABLE
2
LAYER
5
2
100
AcDbSymbolTable
70
2
0
LAYER
5
50
100
AcDbSymbolTableRecord
100
AcDbLayerTableRecord
2
0
70
0
6
CONTINUOUS
0
ENDTAB
0
TABLE
2
STYLE
5
3
100
AcDbSymbolTable
70
1
0
STYLE
5
11
100
AcDbSymbolTableRecord
100
AcDbTextStyleTableRecord
2
STANDARD
70
0
0
ENDTAB
0
TABLE
2
VIEW
5
6
100
AcDbSymbolTable
70
0
0
ENDTAB
0
TABLE
2
UCS
5
7
100
AcDbSymbolTable
70
0
0
ENDTAB
0
TABLE
2
APPID
5
9
100
AcDbSymbolTable
70
2
0
APPID
5
12
100
AcDbSymbolTableRecord
100
AcDbRegAppTableRecord
2
ACAD
70
0
0
ENDTAB
0
TABLE
2
DIMSTYLE
5
A
100
AcDbSymbolTable
70
1
0
ENDTAB
0
TABLE
2
BLOCK_RECORD
5
1
100
AcDbSymbolTable
70
1
0
BLOCK_RECORD
5
1F
100
AcDbSymbolTableRecord
100
AcDbBlockTableRecord
2
*MODEL_SPACE
0
BLOCK_RECORD
5
1B
100
AcDbSymbolTableRecord
100
AcDbBlockTableRecord
2
*PAPER_SPACE
0
ENDTAB
0
ENDSEC
0
SECTION
2
BLOCKS
0
BLOCK
5
20
100
AcDbEntity
100
AcDbBlockBegin
2
*MODEL_SPACE
0
ENDBLK
5
21
100
AcDbEntity
100
AcDbBlockEnd
0
BLOCK
5
1C
100
AcDbEntity
100
AcDbBlockBegin
2
*PAPER_SPACE
0
ENDBLK
5
1D
100
AcDbEntity
100
AcDbBlockEnd
0
ENDSEC
0
SECTION
2
ENTITIES
0
LWPOLYLINE
5
100
100
AcDbEntity
8
0
100
AcDbPolyline
90
6
70
1
43
0.0
10
-87.141004900408461
20
256.48299654940183
42
-0.41421356237309448
10
-17.141004900408461
20
186.48299654940189
10
-17.141004900408454
20
6.4829965494018893
10
-237.14100490040792
20
6.4829965494018893
10
-237.14100490040792
20
186.48299654940189
42
-0.41421356237309442
10
-167.14100490040792
20
256.48299654940189
0
LWPOLYLINE
5
101
100
AcDbEntity
8
0
100
AcDbPolyline
90
4
70
1
43
0.0
10
-148.64320176829401
20
36.376199768674411
10
-150.00271296610694
20
36.380975504146967
10
-150.03435990233541
20
27.372025065765669
10
-148.67484870452247
20
27.367249330293109
0
SPLINE
5
102
100
AcDbEntity
8
0
100
AcDbSpline
70
1064
71
3
72
10
73
6
74
0
42
0.000000001
43
0.0000000001
44
0.0000000001
40
0
40
0
40
0
40
0
40
0.12878192562846771
40
0.12878192562846771
40
0.25746379494369331
40
0.25746379494369331
40
0.25746379494369331
40
0.25746379494369331
10
-124.14804397427709
20
36.465198588588606
30
0
10
-123.72002799937169
20
36.432370139053951
30
0
10
-123.3223917340635
20
36.401871786576095
30
0
10
-122.54157528443591
20
36.177202772204645
30
0
10
-122.17317009836522
20
35.987413754691062
30
0
10
-121.80476491229476
20
35.797624737177586
30
0
0
LINE
5
103
100
AcDbEntity
8
0
100
AcDbLine
10
-121.80476491229476
20
35.797624737177593
30
0
11
-121.81042200636425
21
34.187216711285345
31
0
0
SPLINE
5
104
100
AcDbEntity
8
0
100
AcDbSpline
70
1064
71
3
72
10
73
6
74
0
42
0.000000001
43
0.0000000001
44
0.0000000001
40
0
40
0
40
0
40
0
40
0.13641660999342919
40
0.13641660999342919
40
0.2735538787338766
40
0.2735538787338766
40
0.2735538787338766
40
0.2735538787338766
10
-121.81042200636423
20
34.187216711285338
30
0
10
-122.173409925725
20
34.461099711811165
30
0
10
-122.53639784508559
20
34.734982712336901
30
0
10
-123.34745318118573
20
35.074758730085136
30
0
10
-123.75819739246289
20
35.123725453318777
30
0
10
-124.24591023916679
20
35.181867964707514
30
0
0
SPLINE
5
105
100
AcDbEntity
8
0
100
AcDbSpline
70
1064
71
3
72
10
73
6
74
0
42
0.000000001
43
0.0000000001
44
0.0000000001
40
0
40
0
40
0
40
0
40
0.1335911080052232
40
0.1335911080052232
40
0.26718338691209798
40
0.26718338691209798
40
0.26718338691209798
40
0.26718338691209798
10
-124.24591023916679
20
35.181867964707514
30
0
10
-124.68945151691899
20
35.14228874993821
30
0
10
-125.13299279467127
20
35.102709535168913
30
0
10
-125.91423198756709
20
34.773213240183729
30
0
10
-126.25030033534266
20
34.483980862636436
30
0
10
-126.58917392024792
20
34.192334198203802
30
0
0
SPLINE
5
106
100
AcDbEntity
8
0
100
AcDbSpline
70
1064
71
3
72
10
73
6
74
0
42
0.000000001
43
0.0000000001
44
0.0000000001
40
0
40
0
40
0
40
0
40
0.13917815763350716
40
0.13917815763350716
40
0.2783213168687374
40
0.2783213168687374
40
0.2783213168687374
40
0.2783213168687374
10
-126.58917392024792
20
34.192334198203802
30
0
10
-126.87879189082737
20
33.829911971101112
30
0
10
-127.15618300295205
20
33.482790193976669
30
0
10
-127.47621944185093
20
32.6739868376293
30
0
10
-127.51541545080059
20
32.221200420796876
30
0
10
-127.55461145975026
20
31.76841400396426
30
0
0
SPLINE
5
107
100
AcDbEntity
8
0
100
AcDbSpline
70
1064
71
3
72
10
73
6
74
0
42
0.000000001
43
0.0000000001
44
0.0000000001
40
0
40
0
40
0
40
0
40
0.13478798243953291
40
0.13478798243953291
40
0.26960504470784391
40
0.26960504470784391
40
0.26960504470784391
40
0.26960504470784391
10
-127.55461145975026
20
31.76841400396426
30
0
10
-127.51840965471105
20
31.320581584312652
30
0
10
-127.48220784967187
20
30.87274916466135
30
0
10
-127.16768964888752
20
30.073446648105012
30
0
10
-126.89252102172136
20
29.73012970371893
30
0
10
-126.60610421216178
20
29.372778849838937
30
0
0
SPLINE
5
108
100
AcDbEntity
8
0
100
AcDbSpline
70
1064
71
3
72
10
73
6
74
0
42
0.000000001
43
0.0000000001
44
0.0000000001
40
0
40
0
40
0
40
0
40
0.13433803110854134
40
0.13433803110854134
40
0.268670189210646
40
0.268670189210646
40
0.268670189210646
40
0.268670189210646
10
-126.60610421216178
20
29.372778849838937
30
0
10
-126.26436540043863
20
29.083411355451922
30
0
10
-125.92885661273394
20
28.799319136738447
30
0
10
-125.14779503144626
20
28.472524594012913
30
0
10
-124.70586469270442
20
28.431325331863672
30
0
10
-124.26393435396257
20
28.390126069714434
30
0
0
SPLINE
5
109
100
AcDbEntity
8
0
100
AcDbSpline
70
1064
71
3
72
10
73
6
74
0
42
0.000000001
43
0.0000000001
44
0.0000000001
40
0
40
0
40
0
40
0
40
0.062942829200558645
40
0.062942829200558645
40
0.12638296429911475
40
0.12638296429911475
40
0.12638296429911475
40
0.12638296429911475
10
-124.26393435396257
20
28.390126069714434
30
0
10
-124.05420169349759
20
28.395801308187881
30
0
10
-123.84446903303278
20
28.401476546661328
30
0
10
-123.43556930277209
20
28.475449144304996
30
0
10
-123.25929933373736
20
28.540116158233925
30
0
10
-123.04363720334401
20
28.619234717489704
30
0
0
SPLINE
5
110
100
AcDbEntity
8
0
100
AcDbSpline
70
1064
71
3
72
10
73
6
74
0
42
0.000000001
43
0.0000000001
44
0.0000000001
40
0
40
0
40
0
40
0
40
0.035203591673838172
40
0.035203591673838172
40
0.070296591310163886
40
0.070296591310163886
40
0.070296591310163886
40
0.070296591310163886
10
-123.04363720334401
20
28.619234717489704
30
0
10
-122.93661753995917
20
28.667366956067738
30
0
10
-122.84341393375087
20
28.709285404215152
30
0
10
-122.65038717279525
20
28.814162367716566
30
0
10
-122.5576355231079
20
28.873224019405058
30
0
10
-122.46488387342015
20
28.932285671093808
30
0
0
SPLINE
5
111
100
AcDbEntity
8
0
100
AcDbSpline
70
1064
71
3
72
10
73
6
74
0
42
0.000000001
43
0.0000000001
44
0.0000000001
40
0
40
0
40
0
40
0
40
0.042724494475324448
40
0.042724494475324448
40
0.085287728572551513
40
0.085287728572551513
40
0.085287728572551513
40
0.085287728572551513
10
-122.46488387342015
20
28.932285671093808
30
0
10
-122.34700062758574
20
29.012195416001603
30
0
10
-122.24549072772274
20
29.081006129061375
30
0
10
-122.03273245556534
20
29.240319133302464
30
0
10
-121.92997063710155
20
29.324412461546082
30
0
10
-121.82720881863733
20
29.408505789790045
30
0
0
LINE
5
112
100
AcDbEntity
8
0
100
AcDbLine
10
-121.82720881863736
20
29.408505789790045
30
0
11
-121.83296839786539
21
27.768923258425641
31
0
0
SPLINE
5
113
100
AcDbEntity
8
0
100
AcDbSpline
70
1064
71
3
72
10
73
6
74
0
42
0.000000001
43
0.0000000001
44
0.0000000001
40
0
40
0
40
0
40
0
40
0.12934990887611778
40
0.12934990887611778
40
0.25873241937492247
40
0.25873241937492247
40
0.25873241937492247
40
0.25873241937492247
10
-121.83296839786539
20
27.768923258425637
30
0
10
-122.22061057769477
20
27.580143034537837
30
0
10
-122.60825275752373
20
27.391362810650239
30
0
10
-123.42568562225549
20
27.173226860764423
30
0
10
-123.84651250975605
20
27.146306189814169
30
0
10
-124.28590722562419
20
27.118197718339303
30
0
0
SPLINE
5
114
100
AcDbEntity
8
0
100
AcDbSpline
70
1064
71
3
72
10
73
6
74
0
42
0.000000001
43
0.0000000001
44
0.0000000001
40
0
40
0
40
0
40
0
40
0.1863351930350147
40
0.1863351930350147
40
0.37267167011052754
40
0.37267167011052754
40
0.37267167011052754
40
0.37267167011052754
10
-124.28590722562419
20
27.118197718339303
30
0
10
-124.9043282852524
20
27.176008668296433
30
0
10
-125.52274934488062
20
27.233819618253566
30
0
10
-126.62023657800094
20
27.686544599632207
30
0
10
-127.09727216358999
20
28.080623711398616
30
0
10
-127.57783974386385
20
28.477620604081597
30
0
0
SPLINE
5
115
100
AcDbEntity
8
0
100
AcDbSpline
70
1064
71
3
72
10
73
6
74
0
42
0.000000001
43
0.0000000001
44
0.0000000001
40
0
40
0
40
0
40
0
40
0.18586186520609363
40
0.18586186520609363
40
0.37172380114632197
40
0.37172380114632197
40
0.37172380114632197
40
0.37172380114632197
10
-127.57783974386385
20
28.477620604081597
30
0
10
-127.97251828158409
20
28.955174901233693
30
0
10
-128.36719681930447
20
29.43272919838595
30
0
10
-128.81662658619001
20
30.527335564677042
30
0
10
-128.87118180717016
20
31.143910615254452
30
0
10
-128.92583215784123
20
31.761560807548811
30
0
0
SPLINE
5
116
100
AcDbEntity
8
0
100
AcDbSpline
70
1064
71
3
72
10
73
6
74
0
42
0.000000001
43
0.0000000001
44
0.0000000001
40
0
40
0
40
0
40
0
40
0.17187707160213014
40
0.17187707160213014
40
0.34373889702742966
40
0.34373889702742966
40
0.34373889702742966
40
0.34373889702742966
10
-128.92583215784123
20
31.761560807548811
30
0
10
-128.87419615915854
20
32.332152730906841
30
0
10
-128.82388675241003
20
32.888085450171758
30
0
10
-128.43977289834896
20
33.909372525751408
30
0
10
-128.10851767674475
20
34.368023859376819
30
0
10
-127.77726245514039
20
34.826675193002444
30
0
0
SPLINE
5
117
100
AcDbEntity
8
0
100
AcDbSpline
70
1064
71
3
72
10
73
6
74
0
42
0.000000001
43
0.0000000001
44
0.0000000001
40
0
40
0
40
0
40
0
40
0.21379388683145228
40
0.21379388683145228
40
0.42756336308268011
40
0.42756336308268011
40
0.42756336308268011
40
0.42756336308268011
10
-127.77726245514039
20
34.826675193002444
30
0
10
-127.2603775348061
20
35.317281667665192
30
0
10
-126.75848628709902
20
35.793656748490548
30
0
10
-125.54772210798347
20
36.337755685639962
30
0
10
-124.84788304113025
20
36.401477137114291
30
0
10
-124.14804397427709
20
36.465198588588606
30
0
0
LINE
5
118
100
AcDbEntity
8
0
100
AcDbLine
10
-120.37017631189568
20
27.267819749865957
30
0
11
-120.33555735213241
21
37.122817733998801
31
0
0
LINE
5
119
100
AcDbEntity
8
0
100
AcDbLine
10
-120.33555735213241
20
37.122817733998801
30
0
11
-119.02272308321133
21
37.118205966771171
31
0
0
LINE
5
120
100
AcDbEntity
8
0
100
AcDbLine
10
-119.02272308321133
20
37.118205966771171
30
0
11
-119.03903847254898
21
32.473695267068152
31
0
0
SPLINE
5
121
100
AcDbEntity
8
0
100
AcDbSpline
70
1064
71
3
72
10
73
6
74
0
42
0.000000001
43
0.0000000001
44
0.0000000001
40
0
40
0
40
0
40
0
40
0.086923051327365608
40
0.086923051327365608
40
0.17399063845550899
40
0.17399063845550899
40
0.17399063845550899
40
0.17399063845550899
10
-119.03903847254898
20
32.473695267068152
30
0
10
-118.8101467140666
20
32.651346220499491
30
0
10
-118.58125495558414
20
32.828997173930894
30
0
10
-118.06579618483296
20
33.040226903657882
30
0
10
-117.79318139546473
20
33.067809106595675
30
0
10
-117.49059928268738
20
33.098423297628052
30
0
0
SPLINE
5
122
100
AcDbEntity
8
0
100
AcDbSpline
70
1064
71
3
72
10
73
6
74
0
42
0.000000001
43
0.0000000001
44
0.0000000001
40
0
40
0
40
0
40
0
40
0.087527129139406898
40
0.087527129139406898
40
0.17525632263084626
40
0.17525632263084626
40
0.17525632263084626
40
0.17525632263084626
10
-117.49059928268738
20
33.098423297628052
30
0
10
-117.19970535005901
20
33.075997337525713
30
0
10
-116.90881141743068
20
33.053571377423381
30
0
10
-116.39393185373498
20
32.847135620909221
30
0
10
-116.18647456882823
20
32.669317233991791
30
0
10
-115.95240333844812
20
32.468687168729545
30
0
0
SPLINE
5
123
100
AcDbEntity
8
0
100
AcDbSpline
70
1064
71
3
72
10
73
6
74
0
42
0.000000001
43
0.0000000001
44
0.0000000001
40
0
40
0
40
0
40
0
40
0.10582052361847497
40
0.10582052361847497
40
0.20881473107629731
40
0.20881473107629731
40
0.20881473107629731
40
0.20881473107629731
10
-115.95240333844812
20
32.468687168729545
30
0
10
-115.76710247221115
20
32.168544494760553
30
0
10
-115.63091449878846
20
31.947952851906429
30
0
10
-115.47893786539055
20
31.358263981110262
30
0
10
-115.47365257135235
20
31.046145252660896
30
0
10
-115.46836727731414
20
30.734026524211448
30
0
0
LINE
5
124
100
AcDbEntity
8
0
100
AcDbLine
10
-115.46836727731414
20
30.734026524211444
30
0
11
-115.48060381931739
21
27.250643499434183
31
0
0
LINE
5
125
100
AcDbEntity
8
0
100
AcDbLine
10
-115.48060381931739
20
27.250643499434183
30
0
11
-116.79343570406741
21
27.255255258286617
31
0
0
LINE
5
126
100
AcDbEntity
8
0
100
AcDbLine
10
-116.79343570406741
20
27.255255258286617
30
0
11
-116.78162959470498
21
30.616106790583487
31
0
0
SPLINE
5
127
100
AcDbEntity
8
0
100
AcDbSpline
70
1064
71
3
72
10
73
6
74
0
42
0.000000001
43
0.0000000001
44
0.0000000001
40
0
40
0
40
0
40
0
40
0.052489522725911716
40
0.052489522725911716
40
0.10675459722685529
40
0.10675459722685529
40
0.10675459722685529
40
0.10675459722685529
10
-116.78162959470498
20
30.616106790583487
30
0
10
-116.78326880227308
20
30.791064187488605
30
0
10
-116.78490800984119
20
30.96602158439374
30
0
10
-116.86022361280521
20
31.302349985404106
30
0
10
-116.92858743216526
20
31.428464131530394
30
0
10
-117.02322744072822
20
31.603051273984271
30
0
0
SPLINE
5
128
100
AcDbEntity
8
0
100
AcDbSpline
70
1064
71
3
72
10
73
6
74
0
42
0.000000001
43
0.0000000001
44
0.0000000001
40
0
40
0
40
0
40
0
40
0.04938548053888521
40
0.04938548053888521
40
0.098078923974330476
40
0.098078923974330476
40
0.098078923974330476
40
0.098078923974330476
10
-117.02322744072822
20
31.603051273984271
30
0
10
-117.14473509693249
20
31.714114606346868
30
0
10
-117.23932361465963
20
31.800572664301285
30
0
10
-117.50159782727795
20
31.900344340729649
30
0
10
-117.64988497003776
20
31.907683276139363
30
0
10
-117.79817211279749
20
31.915022211549065
30
0
0
SPLINE
5
129
100
AcDbEntity
8
0
100
AcDbSpline
70
1064
71
3
72
12
73
8
74
0
42
0.000000001
43
0.0000000001
44
0.0000000001
40
0
40
0
40
0
40
0
40
0.057125654104104848
40
0.057125654104104848
40
0.079905180906295725
40
0.079905180906295725
40
0.097672025587127217
40
0.097672025587127217
40
0.097672025587127217
40
0.097672025587127217
10
-117.79817211279749
20
31.915022211549065
30
0
10
-117.98838128054022
20
31.906088578210102
30
0
10
-118.17859044828302
20
31.89715494487114
30
0
10
-118.40689170379906
20
31.803285918636593
30
0
10
-118.47770708923395
20
31.763154288604284
30
0
10
-118.63685045516536
20
31.628176196411122
30
0
10
-118.70254774094411
20
31.5603298757731
30
0
10
-118.76824502672284
20
31.492483555135088
30
0
0
SPLINE
5
130
100
AcDbEntity
8
0
100
AcDbSpline
70
1064
71
3
72
10
73
6
74
0
42
0.000000001
43
0.0000000001
44
0.0000000001
40
0
40
0
40
0
40
0
40
0.087751722323966469
40
0.087751722323966469
40
0.17143259434250352
40
0.17143259434250352
40
0.17143259434250352
40
0.17143259434250352
10
-118.76824502672284
20
31.492483555135088
30
0
10
-118.88031498410081
20
31.222298556998641
30
0
10
-118.95918060214541
20
31.032164578518213
30
0
10
-119.04534721285488
20
30.524488543457128
30
0
10
-119.04651765064806
20
30.267946490080565
30
0
10
-119.04768808844125
20
30.011404436704268
30
0
0
LINE
5
131
100
AcDbEntity
8
0
100
AcDbLine
10
-119.04768808844125
20
30.011404436704268
30
0
11
-119.05734204297458
21
27.263207982638331
31
0
0
LINE
5
132
100
AcDbEntity
8
0
100
AcDbLine
10
-119.05734204297458
20
27.263207982638331
30
0
11
-120.37017631189568
21
27.267819749865957
31
0
0
LINE
5
133
100
AcDbEntity
8
0
100
AcDbLine
10
-135.38883761139684
20
32.344413099028188
30
0
11
-135.38652148282662
21
33.003746670763235
31
0
0
LINE
5
134
100
AcDbEntity
8
0
100
AcDbLine
10
-135.38652148282662
20
33.003746670763235
30
0
11
-134.06785314727099
21
32.999114409435208
31
0
0
LINE
5
135
100
AcDbEntity
8
0
100
AcDbLine
10
-134.06785314727099
20
32.999114409435208
30
0
11
-134.08781695130222
21
27.316007527286832
31
0
0
LINE
5
136
100
AcDbEntity
8
0
100
AcDbLine
10
-134.08781695130222
20
27.316007527286832
30
0
11
-135.40648528685784
21
27.320639788614859
31
0
0
LINE
5
137
100
AcDbEntity
8
0
100
AcDbLine
10
-135.40648528685784
20
27.320639788614859
30
0
11
-135.40439462061136
21
27.915790878813816
31
0
0
SPLINE
5
138
100
AcDbEntity
8
0
100
AcDbSpline
70
1064
71
3
72
10
73
6
74
0
42
0.000000001
43
0.0000000001
44
0.0000000001
40
0
40
0
40
0
40
0
40
0.099273791798833444
40
0.099273791798833444
40
0.19896681559446444
40
0.19896681559446444
40
0.19896681559446444
40
0.19896681559446444
10
-135.40439462061136
20
27.915790878813816
30
0
10
-135.66010309316863
20
27.705751949254523
30
0
10
-135.91581156572596
20
27.49571301969517
30
0
10
-136.4973060303428
20
27.239235313424658
30
0
10
-136.79893141282085
20
27.204276114795256
30
0
10
-137.15166804077296
20
27.163392984406379
30
0
0
SPLINE
5
139
100
AcDbEntity
8
0
100
AcDbSpline
70
1064
71
3
72
10
73
6
74
0
42
0.000000001
43
0.0000000001
44
0.0000000001
40
0
40
0
40
0
40
0
40
0.11211211652875767
40
0.11211211652875767
40
0.22423634087763811
40
0.22423634087763811
40
0.22423634087763811
40
0.22423634087763811
10
-137.15166804077296
20
27.163392984406379
30
0
10
-137.52368640560928
20
27.198879591075841
30
0
10
-137.89570477044555
20
27.234366197745288
30
0
10
-138.54481833508279
20
27.519571441945839
30
0
10
-138.81720255348566
20
27.767247827222899
30
0
10
-139.09750291867491
20
28.022122289660459
30
0
0
SPLINE
5
140
100
AcDbEntity
8
0
100
AcDbSpline
70
1064
71
3
72
10
73
6
74
0
42
0.000000001
43
0.0000000001
44
0.0000000001
40
0
40
0
40
0
40
0
40
0.12600755211109227
40
0.12600755211109227
40
0.25177027056847134
40
0.25177027056847134
40
0.25177027056847134
40
0.25177027056847134
10
-139.09750291867491
20
28.022122289660459
30
0
10
-139.33922293699743
20
28.36562276897153
30
0
10
-139.55534868768927
20
28.672752064547943
30
0
10
-139.80366548954572
20
29.399350662688029
30
0
10
-139.82895205469907
20
29.797353985412567
30
0
10
-139.8542386198524
20
30.195357308136877
30
0
0
SPLINE
5
141
100
AcDbEntity
8
0
100
AcDbSpline
70
1064
71
3
72
10
73
6
74
0
42
0.000000001
43
0.0000000001
44
0.0000000001
40
0
40
0
40
0
40
0
40
0.11777502944733174
40
0.11777502944733174
40
0.23575557342015058
40
0.23575557342015058
40
0.23575557342015058
40
0.23575557342015058
10
-139.8542386198524
20
30.195357308136877
30
0
10
-139.82589310255375
20
30.586916093417457
30
0
10
-139.79754758525513
20
30.978474878697956
30
0
10
-139.54397399326263
20
31.689553226888233
30
0
10
-139.32547211581655
20
31.989120930027099
30
0
10
-139.08239683620164
20
32.322378950759884
30
0
0
SPLINE
5
142
100
AcDbEntity
8
0
100
AcDbSpline
70
1064
71
3
72
10
73
6
74
0
42
0.000000001
43
0.0000000001
44
0.0000000001
40
0
40
0
40
0
40
0
40
0.11071931258703091
40
0.11071931258703091
40
0.221438292558477
40
0.221438292558477
40
0.221438292558477
40
0.221438292558477
10
-139.08239683620164
20
32.322378950759884
30
0
10
-138.80945883686786
20
32.570800692215713
30
0
10
-138.53784990557949
20
32.818012747225659
30
0
10
-137.89883498520186
20
33.0995583293655
30
0
10
-137.53221053400273
20
33.133548282583661
30
0
10
-137.1655860828036
20
33.167538235801828
30
0
0
SPLINE
5
143
100
AcDbEntity
8
0
100
AcDbSpline
70
1064
71
3
72
10
73
6
74
0
42
0.000000001
43
0.0000000001
44
0.0000000001
40
0
40
0
40
0
40
0
40
0.10905012308769826
40
0.10905012308769826
40
0.21780943362953242
40
0.21780943362953242
40
0.21780943362953242
40
0.21780943362953242
10
-137.1655860828036
20
33.167538235801828
30
0
10
-136.80479046921528
20
33.123276813568523
30
0
10
-136.48757426648129
20
33.084361594647724
30
0
10
-135.8965810861755
20
32.805104095645937
30
0
10
-135.64270934878618
20
32.574758597337087
30
0
10
-135.38883761139684
20
32.344413099028188
30
0
0
LWPOLYLINE
5
144
100
AcDbEntity
8
0
100
AcDbPolyline
90
10
70
1
43
0.0
10
-105.90321817229557
20
32.900176757036334
10
-107.37942538035276
20
32.905362426076579
10
-104.43096644615315
20
26.785881014914139
10
-102.81937570499332
20
30.438692584578355
10
-101.25099243706714
20
26.774710298040727
10
-98.253776920082828
20
32.873305549213853
10
-99.724152445676566
20
32.878470732528896
10
-101.20591937793768
20
29.63948060055699
10
-102.80894287414267
20
33.408612180810266
10
-104.4267390059788
20
29.650794801258748
0
SPLINE
5
145
100
AcDbEntity
8
0
100
AcDbSpline
70
1064
71
3
72
10
73
6
74
0
42
0.000000001
43
0.0000000001
44
0.0000000001
40
0
40
0
40
0
40
0
40
0.12646462557638374
40
0.12646462557638374
40
0.25284090035527651
40
0.25284090035527651
40
0.25284090035527651
40
0.25284090035527651
10
-113.22002856436811
20
27.954557988724169
30
0
10
-113.4845090452616
20
28.282816157659433
30
0
10
-113.73109430786393
20
28.58886379684553
30
0
10
-114.0137307766642
20
29.314749363008417
30
0
10
-114.04484304687941
20
29.721445703917247
30
0
10
-114.0759553170946
20
30.128142044826038
30
0
0
SPLINE
5
146
100
AcDbEntity
8
0
100
AcDbSpline
70
1064
71
3
72
10
73
6
74
0
42
0.000000001
43
0.0000000001
44
0.0000000001
40
0
40
0
40
0
40
0
40
0.11926534671264284
40
0.11926534671264284
40
0.23853061315292556
40
0.23853061315292556
40
0.23853061315292556
40
0.23853061315292556
10
-114.0759553170946
20
30.128142044826038
30
0
10
-114.03770499123532
20
30.523848797329794
30
0
10
-113.99954314058718
20
30.918640257278838
30
0
10
-113.70331995841512
20
31.61580527478225
30
0
10
-113.44543041774715
20
31.917774930911307
30
0
10
-113.18754087707904
20
32.219744587040502
30
0
0
SPLINE
5
147
100
AcDbEntity
8
0
100
AcDbSpline
70
1064
71
3
72
10
73
6
74
0
42
0.000000001
43
0.0000000001
44
0.0000000001
40
0
40
0
40
0
40
0
40
0.12269436623789837
40
0.12269436623789837
40
0.2453759393870818
40
0.2453759393870818
40
0.2453759393870818
40
0.2453759393870818
10
-113.18754087707904
20
32.219744587040502
30
0
10
-112.86871298865563
20
32.475897698528115
30
0
10
-112.55873903177991
20
32.724937372963353
30
0
10
-111.84153293561809
20
33.009236588191051
30
0
10
-111.43941479864814
20
33.042495256482589
30
0
10
-111.03729666167821
20
33.075753924774133
30
0
0
SPLINE
5
148
100
AcDbEntity
8
0
100
AcDbSpline
70
1064
71
3
72
10
73
6
74
0
42
0.000000001
43
0.0000000001
44
0.0000000001
40
0
40
0
40
0
40
0
40
0.12172678119507793
40
0.12172678119507793
40
0.2434643314182004
40
0.2434643314182004
40
0.2434643314182004
40
0.2434643314182004
10
-111.03729666167821
20
33.075753924774133
30
0
10
-110.63317945709551
20
33.039323640281545
30
0
10
-110.22906225251279
20
33.002893355788949
30
0
10
-109.51002443893147
20
32.711528914800653
30
0
10
-109.19983109260208
20
32.458487783602209
30
0
10
-108.88146945345372
20
32.198783343601903
30
0
0
SPLINE
5
149
100
AcDbEntity
8
0
100
AcDbSpline
70
1064
71
3
72
10
73
6
74
0
42
0.000000001
43
0.0000000001
44
0.0000000001
40
0
40
0
40
0
40
0
40
0.1225649798356995
40
0.1225649798356995
40
0.24511703296448123
40
0.24511703296448123
40
0.24511703296448123
40
0.24511703296448123
10
-108.88146945345372
20
32.198783343601903
30
0
10
-108.62179727446099
20
31.883373440402373
30
0
10
-108.36937603016224
20
31.576770859646103
30
0
10
-108.08119402572413
20
30.863424232114642
30
0
10
-108.04747280591474
20
30.461795849781744
30
0
10
-108.01375158610537
20
30.060167467448728
30
0
0
SPLINE
5
150
100
AcDbEntity
8
0
100
AcDbSpline
70
1064
71
3
72
10
73
6
74
0
42
0.000000001
43
0.0000000001
44
0.0000000001
40
0
40
0
40
0
40
0
40
0.12142201202332131
40
0.12142201202332131
40
0.24286736807164588
40
0.24286736807164588
40
0.24286736807164588
40
0.24286736807164588
10
-108.01375158610537
20
30.060167467448728
30
0
10
-108.05005758866244
20
29.65705907728492
30
0
10
-108.08636359121951
20
29.253950687121186
30
0
10
-108.38112582395317
20
28.540511749962324
30
0
10
-108.63679048273248
20
28.237059110938528
30
0
10
-108.90233000195586
20
27.92188583568737
30
0
0
SPLINE
5
151
100
AcDbEntity
8
0
100
AcDbSpline
70
1064
71
3
72
10
73
6
74
0
42
0.000000001
43
0.0000000001
44
0.0000000001
40
0
40
0
40
0
40
0
40
0.12501693419724308
40
0.12501693419724308
40
0.24999673209109893
40
0.24999673209109893
40
0.24999673209109893
40
0.24999673209109893
10
-108.90233000195586
20
27.92188583568737
30
0
10
-109.22957237744642
20
27.663873081317561
30
0
10
-109.54187665884342
20
27.417638198919057
30
0
10
-110.26914761847127
20
27.1360159928836
30
0
10
-110.67543583640331
20
27.103914812008313
30
0
10
-111.08172405433527
20
27.071813631133033
30
0
0
SPLINE
5
152
100
AcDbEntity
8
0
100
AcDbSpline
70
1064
71
3
72
10
73
6
74
0
42
0.000000001
43
0.0000000001
44
0.0000000001
40
0
40
0
40
0
40
0
40
0.12125774853477241
40
0.12125774853477241
40
0.24254339026265231
40
0.24254339026265231
40
0.24254339026265231
40
0.24254339026265231
10
-111.08172405433527
20
27.071813631133033
30
0
10
-111.48431901314828
20
27.107714498063615
30
0
10
-111.88691397196132
20
27.143615364994194
30
0
10
-112.60042374977387
20
27.436309694030726
30
0
10
-112.90382646905444
20
27.690081030484073
30
0
10
-113.22002856436811
20
27.954557988724169
30
0
0
LINE
5
153
100
AcDbEntity
8
0
100
AcDbLine
10
-142.5539869603225
20
32.369583070387655
30
0
11
-142.53701567602027
21
37.200807744107173
31
0
0
LINE
5
154
100
AcDbEntity
8
0
100
AcDbLine
10
-142.53701567602027
20
37.200807744107173
30
0
11
-141.21834853255018
21
37.196175486966744
31
0
0
LINE
5
155
100
AcDbEntity
8
0
100
AcDbLine
10
-141.21834853255018
20
37.196175486966744
30
0
11
-141.25296749231345
21
27.341177502833894
31
0
0
LINE
5
156
100
AcDbEntity
8
0
100
AcDbLine
10
-141.25296749231345
20
27.341177502833894
30
0
11
-142.57163463578354
21
27.345809759974323
31
0
0
LINE
5
157
100
AcDbEntity
8
0
100
AcDbLine
10
-142.57163463578354
20
27.345809759974323
30
0
11
-142.56954396953705
21
27.940960850173283
31
0
0
SPLINE
5
158
100
AcDbEntity
8
0
100
AcDbSpline
70
1064
71
3
72
10
73
6
74
0
42
0.000000001
43
0.0000000001
44
0.0000000001
40
0
40
0
40
0
40
0
40
0.10008409214104581
40
0.10008409214104581
40
0.20032126998344546
40
0.20032126998344546
40
0.20032126998344546
40
0.20032126998344546
10
-142.56954396953705
20
27.94096085017328
30
0
10
-142.82533238264256
20
27.726787208404019
30
0
10
-143.08112079574806
20
27.512613566634784
30
0
10
-143.66651181450084
20
27.258376934747556
30
0
10
-143.9808912921155
20
27.225240973474971
30
0
10
-144.32848731109604
20
27.188603950248019
30
0
0
SPLINE
5
159
100
AcDbEntity
8
0
100
AcDbSpline
70
1064
71
3
72
10
73
6
74
0
42
0.000000001
43
0.0000000001
44
0.0000000001
40
0
40
0
40
0
40
0
40
0.11153928613036256
40
0.11153928613036256
40
0.22308317764612084
40
0.22308317764612084
40
0.22308317764612084
40
0.22308317764612084
10
-144.32848731109604
20
27.188603950248034
30
0
10
-144.69853943298375
20
27.224588636535255
30
0
10
-145.06859155487149
20
27.260573322822484
30
0
10
-145.71361532187848
20
27.546160143033273
30
0
10
-145.98567870571711
20
27.794485191303032
30
0
10
-146.26265256562195
20
28.047292262066826
30
0
0
SPLINE
5
160
100
AcDbEntity
8
0
100
AcDbSpline
70
1064
71
3
72
10
73
6
74
0
42
0.000000001
43
0.0000000001
44
0.0000000001
40
0
40
0
40
0
40
0
40
0.12600755211077419
40
0.12600755211077419
40
0.2517702705677044
40
0.2517702705677044
40
0.2517702705677044
40
0.2517702705677044
10
-146.26265256562195
20
28.047292262066826
30
0
10
-146.50437258394388
20
28.39079274137702
30
0
10
-146.72049833463618
20
28.697922036954058
30
0
10
-146.96881513649276
20
29.424520635094282
30
0
10
-146.99410170164609
20
29.822523957818667
30
0
10
-147.01938826679947
20
30.220527280543248
30
0
0
SPLINE
5
161
100
AcDbEntity
8
0
100
AcDbSpline
70
1064
71
3
72
10
73
6
74
0
42
0.000000001
43
0.0000000001
44
0.0000000001
40
0
40
0
40
0
40
0
40
0.11748745833456792
40
0.11748745833456792
40
0.23516374344027713
40
0.23516374344027713
40
0.23516374344027713
40
0.23516374344027713
10
-147.01938826679947
20
30.220527280543248
30
0
10
-146.99084253904422
20
30.611110400084328
30
0
10
-146.96229681128898
20
31.001693519625579
30
0
10
-146.70858241363334
20
31.710717995996887
30
0
10
-146.48990188915906
20
32.010027854367593
30
0
10
-146.24756698143668
20
32.341713664446161
30
0
0
SPLINE
5
162
100
AcDbEntity
8
0
100
AcDbSpline
70
1064
71
3
72
10
73
6
74
0
42
0.000000001
43
0.0000000001
44
0.0000000001
40
0
40
0
40
0
40
0
40
0.11064699466383467
40
0.11064699466383467
40
0.22129371704505524
40
0.22129371704505524
40
0.22129371704505524
40
0.22129371704505524
10
-146.24756698143668
20
32.341713664446161
30
0
10
-145.9764472604042
20
32.591763129467985
30
0
10
-145.70652318282805
20
32.840709871288873
30
0
10
-145.06945274339716
20
33.124222816289532
30
0
10
-144.70301171692324
20
33.158475760869408
30
0
10
-144.33657069044935
20
33.192728705449284
30
0
0
SPLINE
5
163
100
AcDbEntity
8
0
100
AcDbSpline
70
1064
71
3
72
10
73
6
74
0
42
0.000000001
43
0.0000000001
44
0.0000000001
40
0
40
0
40
0
40
0
40
0.10912412767182018
40
0.10912412767182018
40
0.21798108754576093
40
0.21798108754576093
40
0.21798108754576093
40
0.21798108754576093
10
-144.33657069044935
20
33.192728705449284
30
0
10
-143.97547973778717
20
33.148850795082815
30
0
10
-143.65649676907321
20
33.110089629768453
30
0
10
-143.06353886117782
20
32.831026518677881
30
0
10
-142.80876291075023
20
32.600304794532818
30
0
10
-142.5539869603225
20
32.369583070387655
30
0
0
ENDSEC
0
SECTION
2
OBJECTS
0
DICTIONARY
5
C
100
AcDbDictionary
3
ACAD_GROUP
350
D
3
ACAD_MLINESTYLE
350
17
0
DICTIONARY
5
D
100
AcDbDictionary
0
DICTIONARY
5
1A
330
C
100
AcDbDictionary
0
DICTIONARY
5
17
100
AcDbDictionary
0
ENDSEC
0
EOF
