0
SECTION
2
HEADER
9
$INSUNITS
70
4
9
$ACADVER
1
AC1014
9
$HANDSEED
5
FFFF
0
ENDSEC
0
SECTION
2
TABLES
0
TABLE
2
VPORT
5
8
100
AcDbSymbolTable
0
ENDTAB
0
TABLE
2
LTYPE
5
5
100
AcDbSymbolTable
0
LTYPE
5
14
100
AcDbSymbolTableRecord
100
AcDbLinetypeTableRecord
2
BYBLOCK
70
0
0
LTYPE
5
15
100
AcDbSymbolTableRecord
100
AcDbLinetypeTableRecord
2
BYLAYER
70
0
0
ENDTAB
0
TABLE
2
LAYER
5
2
100
AcDbSymbolTable
70
2
0
LAYER
5
50
100
AcDbSymbolTableRecord
100
AcDbLayerTableRecord
2
0
70
0
6
CONTINUOUS
0
ENDTAB
0
TABLE
2
STYLE
5
3
100
AcDbSymbolTable
70
1
0
STYLE
5
11
100
AcDbSymbolTableRecord
100
AcDbTextStyleTableRecord
2
STANDARD
70
0
0
ENDTAB
0
TABLE
2
VIEW
5
6
100
AcDbSymbolTable
70
0
0
ENDTAB
0
TABLE
2
UCS
5
7
100
AcDbSymbolTable
70
0
0
ENDTAB
0
TABLE
2
APPID
5
9
100
AcDbSymbolTable
70
2
0
APPID
5
12
100
AcDbSymbolTableRecord
100
AcDbRegAppTableRecord
2
ACAD
70
0
0
ENDTAB
0
TABLE
2
DIMSTYLE
5
A
100
AcDbSymbolTable
70
1
0
ENDTAB
0
TABLE
2
BLOCK_RECORD
5
1
100
AcDbSymbolTable
70
1
0
BLOCK_RECORD
5
1F
100
AcDbSymbolTableRecord
100
AcDbBlockTableRecord
2
*MODEL_SPACE
0
BLOCK_RECORD
5
1B
100
AcDbSymbolTableRecord
100
AcDbBlockTableRecord
2
*PAPER_SPACE
0
ENDTAB
0
ENDSEC
0
SECTION
2
BLOCKS
0
BLOCK
5
20
100
AcDbEntity
100
AcDbBlockBegin
2
*MODEL_SPACE
0
ENDBLK
5
21
100
AcDbEntity
100
AcDbBlockEnd
0
BLOCK
5
1C
100
AcDbEntity
100
AcDbBlockBegin
2
*PAPER_SPACE
0
ENDBLK
5
1D
100
AcDbEntity
100
AcDbBlockEnd
0
ENDSEC
0
SECTION
2
ENTITIES
0
ARC
5
100
100
AcDbEntity
8
0
100
AcDbCircle
10
36.141004900410067
20
237.4829965494018
30
0
40
19.000000000001606
100
AcDbArc
50
172.38742895572082
51
180
0
LINE
5
101
100
AcDbEntity
8
0
100
AcDbLine
10
17.141004900408465
20
237.48299654940189
30
0
11
17.141004900408461
21
155
31
0
0
LINE
5
102
100
AcDbEntity
8
0
100
AcDbLine
10
17.141004900408461
20
155
30
0
11
25
21
155
31
0
0
LINE
5
103
100
AcDbEntity
8
0
100
AcDbLine
10
25
20
155
30
0
11
25
21
125
31
0
0
LINE
5
104
100
AcDbEntity
8
0
100
AcDbLine
10
25
20
125
30
0
11
17.141004900408461
21
125
31
0
0
LINE
5
105
100
AcDbEntity
8
0
100
AcDbLine
10
17.141004900408461
20
125
30
0
11
17.141004900408461
21
107.1206422258102
31
0
0
LINE
5
106
100
AcDbEntity
8
0
100
AcDbLine
10
17.141004900408461
20
107.1206422258102
30
0
11
25
21
107.1206422258102
31
0
0
LINE
5
107
100
AcDbEntity
8
0
100
AcDbLine
10
25
20
107.1206422258102
30
0
11
25
21
77.120642225810201
31
0
0
LINE
5
108
100
AcDbEntity
8
0
100
AcDbLine
10
25
20
77.120642225810201
30
0
11
17.141004900408461
21
77.120642225810201
31
0
0
LINE
5
109
100
AcDbEntity
8
0
100
AcDbLine
10
17.141004900408461
20
77.120642225810201
30
0
11
17.141004900408461
21
6.4829965494018893
31
0
0
LINE
5
110
100
AcDbEntity
8
0
100
AcDbLine
10
17.141004900408461
20
6.4829965494018893
30
0
11
237.14100490040792
21
6.4829965494018893
31
0
0
LINE
5
111
100
AcDbEntity
8
0
100
AcDbLine
10
237.14100490040792
20
6.4829965494018893
30
0
11
237.14100490040792
21
77.120642225810144
31
0
0
LINE
5
112
100
AcDbEntity
8
0
100
AcDbLine
10
237.14100490040792
20
77.120642225810144
30
0
11
229.28200980081641
21
77.120642225810144
31
0
0
LINE
5
113
100
AcDbEntity
8
0
100
AcDbLine
10
229.28200980081641
20
77.120642225810144
30
0
11
229.28200980081641
21
107.12064222581014
31
0
0
LINE
5
114
100
AcDbEntity
8
0
100
AcDbLine
10
229.28200980081641
20
107.12064222581014
30
0
11
237.14100490040792
21
107.12064222581014
31
0
0
LINE
5
115
100
AcDbEntity
8
0
100
AcDbLine
10
237.14100490040792
20
107.12064222581014
30
0
11
237.14100490040792
21
124.99999999999994
31
0
0
LINE
5
116
100
AcDbEntity
8
0
100
AcDbLine
10
237.14100490040792
20
124.99999999999994
30
0
11
229.28200980081644
21
124.99999999999994
31
0
0
LINE
5
117
100
AcDbEntity
8
0
100
AcDbLine
10
229.28200980081644
20
124.99999999999994
30
0
11
229.28200980081644
21
154.99999999999994
31
0
0
LINE
5
118
100
AcDbEntity
8
0
100
AcDbLine
10
229.28200980081644
20
154.99999999999994
30
0
11
237.14100490040792
21
154.99999999999994
31
0
0
LINE
5
119
100
AcDbEntity
8
0
100
AcDbLine
10
237.14100490040792
20
154.99999999999994
30
0
11
237.14100490040792
21
239.99999999999994
31
0
0
LINE
5
120
100
AcDbEntity
8
0
100
AcDbLine
10
237.14100490040792
20
239.99999999999994
30
0
11
214.28200980081647
21
239.99999999999997
31
0
0
LINE
5
121
100
AcDbEntity
8
0
100
AcDbLine
10
214.28200980081647
20
239.99999999999997
30
0
11
214.28200980081647
21
244.99999999999997
31
0
0
LINE
5
122
100
AcDbEntity
8
0
100
AcDbLine
10
214.28200980081647
20
244.99999999999997
30
0
11
237.14100490040792
21
244.99999999999994
31
0
0
LINE
5
123
100
AcDbEntity
8
0
100
AcDbLine
10
237.14100490040792
20
244.99999999999994
30
0
11
237.14100490040792
21
246.48299654940189
31
0
0
ARC
5
124
100
AcDbEntity
8
0
100
AcDbCircle
10
227.14100490040789
20
246.48299654940186
30
0
40
10.000000000000036
100
AcDbArc
50
0
51
89.999999999999844
0
LINE
5
125
100
AcDbEntity
8
0
100
AcDbLine
10
227.14100490040792
20
256.48299654940189
30
0
11
207.14100490040792
21
256.48299654940206
31
0
0
SPLINE
5
126
100
AcDbEntity
8
0
100
AcDbSpline
70
1064
71
2
72
6
73
3
74
0
42
0.000000001
43
0.0000000001
44
0.0000000001
40
0
40
0
40
0
40
18.071605441472009
40
18.071605441472009
40
18.071605441472009
10
47.141004900408461
20
256.48299654940189
30
0
10
125.46137771873745
20
376.49994738774262
30
0
10
207.14100490040792
20
256.48299654940206
30
0
0
LINE
5
127
100
AcDbEntity
8
0
100
AcDbLine
10
47.141004900408461
20
256.48299654940189
30
0
11
36.141004900408468
21
256.48299654940189
31
0
0
ARC
5
128
100
AcDbEntity
8
0
100
AcDbCircle
10
36.141004900410067
20
237.4829965494018
30
0
40
19.000000000000092
100
AcDbArc
50
90.000000000004817
51
156.69461882684433
0
LINE
5
129
100
AcDbEntity
8
0
100
AcDbLine
10
18.69122956879756
20
245
30
0
11
40
21
245
31
0
0
LINE
5
130
100
AcDbEntity
8
0
100
AcDbLine
10
40
20
245
30
0
11
40
21
240
31
0
0
LINE
5
131
100
AcDbEntity
8
0
100
AcDbLine
10
40
20
240
30
0
11
17.308461428278171
21
240
31
0
0
CIRCLE
5
132
100
AcDbEntity
8
0
100
AcDbCircle
10
62.40086523087777
20
239.189329998722
30
0
40
1.9154225598947239
0
CIRCLE
5
133
100
AcDbEntity
8
0
100
AcDbCircle
10
168.61248124942671
20
215.30291455465655
30
0
40
1.915422559894715
0
CIRCLE
5
134
100
AcDbEntity
8
0
100
AcDbCircle
10
162.6408773884105
20
226.42245277861781
30
0
40
1.915422559894715
0
CIRCLE
5
135
100
AcDbEntity
8
0
100
AcDbCircle
10
91.641132412406009
20
226.42245277861781
30
0
40
1.9154225598947325
0
CIRCLE
5
136
100
AcDbEntity
8
0
100
AcDbCircle
10
127.14100490040822
20
116.0603211129051
30
0
40
79.999999999999986
0
CIRCLE
5
137
100
AcDbEntity
8
0
100
AcDbCircle
10
191.05747507186766
20
207.88988907201525
30
0
40
1.915422559894715
0
CIRCLE
5
138
100
AcDbEntity
8
0
100
AcDbCircle
10
79.080172566819883
20
223.53960953536847
30
0
40
1.9154225598947325
0
CIRCLE
5
139
100
AcDbEntity
8
0
100
AcDbCircle
10
70.843477586107724
20
216.744336176281
30
0
40
1.9154225598947239
0
CIRCLE
5
140
100
AcDbEntity
8
0
100
AcDbCircle
10
174.58408511044311
20
204.80112845424841
30
0
40
1.915422559894715
0
CIRCLE
5
141
100
AcDbEntity
8
0
100
AcDbCircle
10
175.20183723399663
20
223.53960953536844
30
0
40
1.915422559894715
0
CIRCLE
5
142
100
AcDbEntity
8
0
100
AcDbCircle
10
140.40180094048731
20
274.81303579030237
30
0
40
1.9154225598947325
0
CIRCLE
5
143
100
AcDbEntity
8
0
100
AcDbCircle
10
60.959443609253057
20
246.80827285588063
30
0
40
1.9154225598947239
0
CIRCLE
5
144
100
AcDbEntity
8
0
100
AcDbCircle
10
183.23261484019088
20
209.33131069364021
30
0
40
1.915422559894715
0
CIRCLE
5
145
100
AcDbEntity
8
0
100
AcDbCircle
10
152.13909128800213
20
273.16569679416028
30
0
40
1.9154225598947325
0
CIRCLE
5
146
100
AcDbEntity
8
0
100
AcDbCircle
10
158.93436464709004
20
217.56800567435198
30
0
40
1.915422559894715
0
CIRCLE
5
147
100
AcDbEntity
8
0
100
AcDbCircle
10
183.43853221470877
20
216.74433617628097
30
0
40
1.915422559894715
0
CIRCLE
5
148
100
AcDbEntity
8
0
100
AcDbCircle
10
54.576004999201061
20
237.74790837709725
30
0
40
1.9154225598947239
0
CIRCLE
5
149
100
AcDbEntity
8
0
100
AcDbCircle
10
71.049394960625591
20
209.33131069364023
30
0
40
1.9154225598947239
0
CIRCLE
5
150
100
AcDbEntity
8
0
100
AcDbCircle
10
79.697924690373355
20
204.80112845424844
30
0
40
1.9154225598947239
0
CIRCLE
5
151
100
AcDbEntity
8
0
100
AcDbCircle
10
191.88114456993873
20
239.18932999872197
30
0
40
1.915422559894715
0
CIRCLE
5
152
100
AcDbEntity
8
0
100
AcDbCircle
10
162.13909128800211
20
268.16569679416028
30
0
40
1.915422559894715
0
CIRCLE
5
153
100
AcDbEntity
8
0
100
AcDbCircle
10
63.224534728948811
20
207.88988907201528
30
0
40
1.9154225598947239
0
CIRCLE
5
154
100
AcDbEntity
8
0
100
AcDbCircle
10
154.81601715673381
20
266.78225818410789
30
0
40
1.9154225598947325
0
CIRCLE
5
155
100
AcDbEntity
8
0
100
AcDbCircle
10
112.43878723870444
20
239.8070821222754
30
0
40
1.9154225598947325
0
CIRCLE
5
156
100
AcDbEntity
8
0
100
AcDbCircle
10
199.70600480161545
20
237.74790837709719
30
0
40
1.915422559894715
0
CIRCLE
5
157
100
AcDbEntity
8
0
100
AcDbCircle
10
122.11690384104129
20
236.10056938095494
30
0
40
1.9154225598947325
0
CIRCLE
5
158
100
AcDbEntity
8
0
100
AcDbCircle
10
117.17488685261388
20
230.74671764349182
30
0
40
1.9154225598947325
0
CIRCLE
5
159
100
AcDbEntity
8
0
100
AcDbCircle
10
123.14649071363013
20
221.48043579019026
30
0
40
1.9154225598947325
0
CIRCLE
5
160
100
AcDbEntity
8
0
100
AcDbCircle
10
117.58672160164942
20
219.21534467049426
30
0
40
1.9154225598947325
0
CIRCLE
5
161
100
AcDbEntity
8
0
100
AcDbCircle
10
136.69528819916707
20
219.21534467049426
30
0
40
1.9154225598947325
0
CIRCLE
5
162
100
AcDbEntity
8
0
100
AcDbCircle
10
193.32256619156342
20
246.8082728558806
30
0
40
1.915422559894715
0
CIRCLE
5
163
100
AcDbEntity
8
0
100
AcDbCircle
10
131.13551908718637
20
221.48043579019026
30
0
40
1.9154225598947325
0
CIRCLE
5
164
100
AcDbEntity
8
0
100
AcDbCircle
10
132.16510595977519
20
236.10056938095494
30
0
40
1.9154225598947325
0
CIRCLE
5
165
100
AcDbEntity
8
0
100
AcDbCircle
10
141.84322256211206
20
239.8070821222754
30
0
40
1.9154225598947325
0
CIRCLE
5
166
100
AcDbEntity
8
0
100
AcDbCircle
10
92.142918512814376
20
268.16569679416028
30
0
40
1.9154225598947325
0
CIRCLE
5
167
100
AcDbEntity
8
0
100
AcDbCircle
10
99.465992644082704
20
266.78225818410789
30
0
40
1.9154225598947325
0
CIRCLE
5
168
100
AcDbEntity
8
0
100
AcDbCircle
10
66.931047470269476
20
251.95620721882585
30
0
40
1.9154225598947239
0
CIRCLE
5
169
100
AcDbEntity
8
0
100
AcDbCircle
10
102.14291851281438
20
273.16569679416028
30
0
40
1.9154225598947325
0
CIRCLE
5
170
100
AcDbEntity
8
0
100
AcDbCircle
10
113.88020886032919
20
274.81303579030237
30
0
40
1.9154225598947325
0
CIRCLE
5
171
100
AcDbEntity
8
0
100
AcDbCircle
10
109.14410924641945
20
267.60592768217884
30
0
40
1.9154225598947325
0
CIRCLE
5
172
100
AcDbEntity
8
0
100
AcDbCircle
10
95.759479902762209
20
259.78106745050246
30
0
40
1.9154225598947325
0
CIRCLE
5
173
100
AcDbEntity
8
0
100
AcDbCircle
10
145.13790055439705
20
267.60592768217884
30
0
40
1.9154225598947325
0
CIRCLE
5
174
100
AcDbEntity
8
0
100
AcDbCircle
10
95.347645153726432
20
217.56800567435198
30
0
40
1.9154225598947325
0
CIRCLE
5
175
100
AcDbEntity
8
0
100
AcDbCircle
10
85.669528551389774
20
215.30291455465658
30
0
40
1.9154225598947325
0
CIRCLE
5
176
100
AcDbEntity
8
0
100
AcDbCircle
10
158.5225298980543
20
259.78106745050246
30
0
40
1.915422559894715
0
CIRCLE
5
177
100
AcDbEntity
8
0
100
AcDbCircle
10
137.1071229482026
20
230.74671764349182
30
0
40
1.9154225598947325
0
CIRCLE
5
178
100
AcDbEntity
8
0
100
AcDbCircle
10
187.35096233054702
20
251.9562072188258
30
0
40
1.915422559894715
0
CIRCLE
5
179
100
AcDbEntity
8
0
100
AcDbCircle
10
62.40086523087777
20
239.189329998722
30
0
40
1.9154225598947239
0
CIRCLE
5
180
100
AcDbEntity
8
0
100
AcDbCircle
10
168.61248124942671
20
215.30291455465655
30
0
40
1.915422559894715
0
CIRCLE
5
181
100
AcDbEntity
8
0
100
AcDbCircle
10
162.6408773884105
20
226.42245277861781
30
0
40
1.915422559894715
0
CIRCLE
5
182
100
AcDbEntity
8
0
100
AcDbCircle
10
91.641132412406009
20
226.42245277861781
30
0
40
1.9154225598947325
0
CIRCLE
5
183
100
AcDbEntity
8
0
100
AcDbCircle
10
127.14100490040822
20
116.0603211129051
30
0
40
79.999999999999986
0
CIRCLE
5
184
100
AcDbEntity
8
0
100
AcDbCircle
10
191.05747507186766
20
207.88988907201525
30
0
40
1.915422559894715
0
CIRCLE
5
185
100
AcDbEntity
8
0
100
AcDbCircle
10
79.080172566819883
20
223.53960953536847
30
0
40
1.9154225598947325
0
CIRCLE
5
186
100
AcDbEntity
8
0
100
AcDbCircle
10
70.843477586107724
20
216.744336176281
30
0
40
1.9154225598947239
0
CIRCLE
5
187
100
AcDbEntity
8
0
100
AcDbCircle
10
174.58408511044311
20
204.80112845424841
30
0
40
1.915422559894715
0
CIRCLE
5
188
100
AcDbEntity
8
0
100
AcDbCircle
10
175.20183723399663
20
223.53960953536844
30
0
40
1.915422559894715
0
CIRCLE
5
189
100
AcDbEntity
8
0
100
AcDbCircle
10
140.40180094048731
20
274.81303579030237
30
0
40
1.9154225598947325
0
CIRCLE
5
190
100
AcDbEntity
8
0
100
AcDbCircle
10
60.959443609253057
20
246.80827285588063
30
0
40
1.9154225598947239
0
CIRCLE
5
191
100
AcDbEntity
8
0
100
AcDbCircle
10
183.23261484019088
20
209.33131069364021
30
0
40
1.915422559894715
0
CIRCLE
5
192
100
AcDbEntity
8
0
100
AcDbCircle
10
152.13909128800213
20
273.16569679416028
30
0
40
1.9154225598947325
0
CIRCLE
5
193
100
AcDbEntity
8
0
100
AcDbCircle
10
158.93436464709004
20
217.56800567435198
30
0
40
1.915422559894715
0
CIRCLE
5
194
100
AcDbEntity
8
0
100
AcDbCircle
10
183.43853221470877
20
216.74433617628097
30
0
40
1.915422559894715
0
CIRCLE
5
195
100
AcDbEntity
8
0
100
AcDbCircle
10
54.576004999201061
20
237.74790837709725
30
0
40
1.9154225598947239
0
CIRCLE
5
196
100
AcDbEntity
8
0
100
AcDbCircle
10
71.049394960625591
20
209.33131069364023
30
0
40
1.9154225598947239
0
CIRCLE
5
197
100
AcDbEntity
8
0
100
AcDbCircle
10
79.697924690373355
20
204.80112845424844
30
0
40
1.9154225598947239
0
CIRCLE
5
198
100
AcDbEntity
8
0
100
AcDbCircle
10
191.88114456993873
20
239.18932999872197
30
0
40
1.915422559894715
0
CIRCLE
5
199
100
AcDbEntity
8
0
100
AcDbCircle
10
162.13909128800211
20
268.16569679416028
30
0
40
1.915422559894715
0
CIRCLE
5
200
100
AcDbEntity
8
0
100
AcDbCircle
10
63.224534728948811
20
207.88988907201528
30
0
40
1.9154225598947239
0
CIRCLE
5
201
100
AcDbEntity
8
0
100
AcDbCircle
10
154.81601715673381
20
266.78225818410789
30
0
40
1.9154225598947325
0
CIRCLE
5
202
100
AcDbEntity
8
0
100
AcDbCircle
10
112.43878723870444
20
239.8070821222754
30
0
40
1.9154225598947325
0
CIRCLE
5
203
100
AcDbEntity
8
0
100
AcDbCircle
10
199.70600480161545
20
237.74790837709719
30
0
40
1.915422559894715
0
CIRCLE
5
204
100
AcDbEntity
8
0
100
AcDbCircle
10
122.11690384104129
20
236.10056938095494
30
0
40
1.9154225598947325
0
CIRCLE
5
205
100
AcDbEntity
8
0
100
AcDbCircle
10
117.17488685261388
20
230.74671764349182
30
0
40
1.9154225598947325
0
CIRCLE
5
206
100
AcDbEntity
8
0
100
AcDbCircle
10
123.14649071363013
20
221.48043579019026
30
0
40
1.9154225598947325
0
CIRCLE
5
207
100
AcDbEntity
8
0
100
AcDbCircle
10
117.58672160164942
20
219.21534467049426
30
0
40
1.9154225598947325
0
CIRCLE
5
208
100
AcDbEntity
8
0
100
AcDbCircle
10
136.69528819916707
20
219.21534467049426
30
0
40
1.9154225598947325
0
CIRCLE
5
209
100
AcDbEntity
8
0
100
AcDbCircle
10
193.32256619156342
20
246.8082728558806
30
0
40
1.915422559894715
0
CIRCLE
5
210
100
AcDbEntity
8
0
100
AcDbCircle
10
131.13551908718637
20
221.48043579019026
30
0
40
1.9154225598947325
0
CIRCLE
5
211
100
AcDbEntity
8
0
100
AcDbCircle
10
132.16510595977519
20
236.10056938095494
30
0
40
1.9154225598947325
0
CIRCLE
5
212
100
AcDbEntity
8
0
100
AcDbCircle
10
141.84322256211206
20
239.8070821222754
30
0
40
1.9154225598947325
0
CIRCLE
5
213
100
AcDbEntity
8
0
100
AcDbCircle
10
92.142918512814376
20
268.16569679416028
30
0
40
1.9154225598947325
0
CIRCLE
5
214
100
AcDbEntity
8
0
100
AcDbCircle
10
99.465992644082704
20
266.78225818410789
30
0
40
1.9154225598947325
0
CIRCLE
5
215
100
AcDbEntity
8
0
100
AcDbCircle
10
66.931047470269476
20
251.95620721882585
30
0
40
1.9154225598947239
0
CIRCLE
5
216
100
AcDbEntity
8
0
100
AcDbCircle
10
102.14291851281438
20
273.16569679416028
30
0
40
1.9154225598947325
0
CIRCLE
5
217
100
AcDbEntity
8
0
100
AcDbCircle
10
113.88020886032919
20
274.81303579030237
30
0
40
1.9154225598947325
0
CIRCLE
5
218
100
AcDbEntity
8
0
100
AcDbCircle
10
109.14410924641945
20
267.60592768217884
30
0
40
1.9154225598947325
0
CIRCLE
5
219
100
AcDbEntity
8
0
100
AcDbCircle
10
95.759479902762209
20
259.78106745050246
30
0
40
1.9154225598947325
0
CIRCLE
5
220
100
AcDbEntity
8
0
100
AcDbCircle
10
145.13790055439705
20
267.60592768217884
30
0
40
1.9154225598947325
0
CIRCLE
5
221
100
AcDbEntity
8
0
100
AcDbCircle
10
95.347645153726432
20
217.56800567435198
30
0
40
1.9154225598947325
0
CIRCLE
5
222
100
AcDbEntity
8
0
100
AcDbCircle
10
85.669528551389774
20
215.30291455465658
30
0
40
1.9154225598947325
0
CIRCLE
5
223
100
AcDbEntity
8
0
100
AcDbCircle
10
158.5225298980543
20
259.78106745050246
30
0
40
1.915422559894715
0
CIRCLE
5
224
100
AcDbEntity
8
0
100
AcDbCircle
10
137.1071229482026
20
230.74671764349182
30
0
40
1.9154225598947325
0
CIRCLE
5
225
100
AcDbEntity
8
0
100
AcDbCircle
10
187.35096233054702
20
251.9562072188258
30
0
40
1.915422559894715
0
ARC
5
226
100
AcDbEntity
8
0
100
AcDbCircle
10
36.141004900408468
20
237.48299654940189
30
0
40
18.999999999999986
100
AcDbArc
50
90
51
180
0
LINE
5
227
100
AcDbEntity
8
0
100
AcDbLine
10
36.141004900408468
20
256.48299654940189
30
0
11
47.141004900408454
21
256.48299654940189
31
0
0
SPLINE
5
228
100
AcDbEntity
8
0
100
AcDbSpline
70
1064
71
2
72
6
73
3
74
0
42
0.000000001
43
0.0000000001
44
0.0000000001
40
0
40
0
40
0
40
18.071605441472009
40
18.071605441472009
40
18.071605441472009
10
47.141004900408461
20
256.48299654940189
30
0
10
125.46137771873745
20
376.49994738774262
30
0
10
207.14100490040792
20
256.48299654940206
30
0
0
LINE
5
229
100
AcDbEntity
8
0
100
AcDbLine
10
207.14100490040792
20
256.48299654940206
30
0
11
227.14100490040792
21
256.48299654940189
31
0
0
ARC
5
230
100
AcDbEntity
8
0
100
AcDbCircle
10
227.14100490040792
20
246.48299654940189
30
0
40
10
100
AcDbArc
50
0
51
90
0
LINE
5
231
100
AcDbEntity
8
0
100
AcDbLine
10
237.14100490040792
20
246.48299654940189
30
0
11
237.14100490040792
21
6.4829965494018893
31
0
0
LINE
5
232
100
AcDbEntity
8
0
100
AcDbLine
10
237.14100490040792
20
6.4829965494018893
30
0
11
17.141004900408454
21
6.4829965494018893
31
0
0
LINE
5
233
100
AcDbEntity
8
0
100
AcDbLine
10
17.141004900408454
20
6.4829965494018893
30
0
11
17.141004900408465
21
237.48299654940189
31
0
0
ENDSEC
0
SECTION
2
OBJECTS
0
DICTIONARY
5
C
100
AcDbDictionary
3
ACAD_GROUP
350
D
3
ACAD_MLINESTYLE
350
17
0
DICTIONARY
5
D
100
AcDbDictionary
0
DICTIONARY
5
1A
330
C
100
AcDbDictionary
0
DICTIONARY
5
17
100
AcDbDictionary
0
ENDSEC
0
EOF
