  0
SECTION
  2
HEADER
  9
$ACADVER
  1
AC1024
  9
$ACADMAINTVER
 70
     6
  9
$DWGCODEPAGE
  3
UNDEFINED
  9
$INSBASE
 10
0.0
 20
0.0
 30
0.0
  9
$EXTMIN
 10
1.000000000000000E+20
 20
1.000000000000000E+20
 30
1.000000000000000E+20
  9
$EXTMAX
 10
-1.000000000000000E+20
 20
-1.000000000000000E+20
 30
-1.000000000000000E+20
  9
$LIMMIN
 10
0.0
 20
0.0
  9
$LIMMAX
 10
12.0
 20
9.0
  9
$ORTHOMODE
 70
     0
  9
$REGENMODE
 70
     1
  9
$FILLMODE
 70
     1
  9
$QTEXTMODE
 70
     0
  9
$MIRRTEXT
 70
     1
  9
$LTSCALE
 40
1.0
  9
$ATTMODE
 70
     1
  9
$TEXTSIZE
 40
0.2
  9
$TRACEWID
 40
0.05
  9
$TEXTSTYLE
  7
Standard
  9
$CLAYER
  8
0
  9
$CELTYPE
  6
ByLayer
  9
$CECOLOR
 62
   256
  9
$CELTSCALE
 40
1.0
  9
$DISPSILH
 70
     0
  9
$DIMSCALE
 40
1.0
  9
$DIMASZ
 40
0.18
  9
$DIMEXO
 40
0.0625
  9
$DIMDLI
 40
0.38
  9
$DIMRND
 40
0.0
  9
$DIMDLE
 40
0.0
  9
$DIMEXE
 40
0.18
  9
$DIMTP
 40
0.0
  9
$DIMTM
 40
0.0
  9
$DIMTXT
 40
0.18
  9
$DIMCEN
 40
0.09
  9
$DIMTSZ
 40
0.0
  9
$DIMTOL
 70
     0
  9
$DIMLIM
 70
     0
  9
$DIMTIH
 70
     1
  9
$DIMTOH
 70
     1
  9
$DIMSE1
 70
     0
  9
$DIMSE2
 70
     0
  9
$DIMTAD
 70
     0
  9
$DIMZIN
 70
     0
  9
$DIMBLK
  1

  9
$DIMASO
 70
     1
  9
$DIMSHO
 70
     1
  9
$DIMPOST
  1

  9
$DIMAPOST
  1

  9
$DIMALT
 70
     0
  9
$DIMALTD
 70
     2
  9
$DIMALTF
 40
25.4
  9
$DIMLFAC
 40
1.0
  9
$DIMTOFL
 70
     0
  9
$DIMTVP
 40
0.0
  9
$DIMTIX
 70
     0
  9
$DIMSOXD
 70
     0
  9
$DIMSAH
 70
     0
  9
$DIMBLK1
  1

  9
$DIMBLK2
  1

  9
$DIMSTYLE
  2
Standard
  9
$DIMCLRD
 70
     0
  9
$DIMCLRE
 70
     0
  9
$DIMCLRT
 70
     0
  9
$DIMTFAC
 40
1.0
  9
$DIMGAP
 40
0.09
  9
$DIMJUST
 70
     0
  9
$DIMSD1
 70
     0
  9
$DIMSD2
 70
     0
  9
$DIMTOLJ
 70
     1
  9
$DIMTZIN
 70
     0
  9
$DIMALTZ
 70
     0
  9
$DIMALTTZ
 70
     0
  9
$DIMUPT
 70
     0
  9
$DIMDEC
 70
     4
  9
$DIMTDEC
 70
     4
  9
$DIMALTU
 70
     2
  9
$DIMALTTD
 70
     2
  9
$DIMTXSTY
  7
Standard
  9
$DIMAUNIT
 70
     0
  9
$DIMADEC
 70
     0
  9
$DIMALTRND
 40
0.0
  9
$DIMAZIN
 70
     0
  9
$DIMDSEP
 70
    46
  9
$DIMATFIT
 70
     3
  9
$DIMFRAC
 70
     0
  9
$DIMLDRBLK
  1

  9
$DIMLUNIT
 70
     2
  9
$DIMLWD
 70
    -2
  9
$DIMLWE
 70
    -2
  9
$DIMTMOVE
 70
     0
  9
$DIMFXL
 40
1.0
  9
$DIMFXLON
 70
     0
  9
$DIMJOGANG
 40
0.7853981633974483
  9
$DIMTFILL
 70
     0
  9
$DIMTFILLCLR
 70
     0
  9
$DIMARCSYM
 70
     0
  9
$DIMLTYPE
  6

  9
$DIMLTEX1
  6

  9
$DIMLTEX2
  6

  9
$DIMTXTDIRECTION
 70
     0
  9
$LUNITS
 70
     2
  9
$LUPREC
 70
     4
  9
$SKETCHINC
 40
0.1
  9
$FILLETRAD
 40
0.5
  9
$AUNITS
 70
     0
  9
$AUPREC
 70
     0
  9
$MENU
  1
.
  9
$ELEVATION
 40
0.0
  9
$PELEVATION
 40
0.0
  9
$THICKNESS
 40
0.0
  9
$LIMCHECK
 70
     0
  9
$CHAMFERA
 40
0.5
  9
$CHAMFERB
 40
0.5
  9
$CHAMFERC
 40
1.0
  9
$CHAMFERD
 40
0.0
  9
$SKPOLY
 70
     0
  9
$TDCREATE
 40
2458187.489571748
  9
$TDUCREATE
 40
2458187.697905093
  9
$TDUPDATE
 40
2458187.489571748
  9
$TDUUPDATE
 40
2458187.697905093
  9
$TDINDWG
 40
0.0000000116
  9
$TDUSRTIMER
 40
0.0000000116
  9
$USRTIMER
 70
     1
  9
$ANGBASE
 50
0.0
  9
$ANGDIR
 70
     0
  9
$PDMODE
 70
     0
  9
$PDSIZE
 40
0.0
  9
$PLINEWID
 40
0.0
  9
$SPLFRAME
 70
     0
  9
$SPLINETYPE
 70
     6
  9
$SPLINESEGS
 70
     8
  9
$HANDSEED
  5
4B7
  9
$SURFTAB1
 70
     6
  9
$SURFTAB2
 70
     6
  9
$SURFTYPE
 70
     6
  9
$SURFU
 70
     6
  9
$SURFV
 70
     6
  9
$UCSBASE
  2

  9
$UCSNAME
  2

  9
$UCSORG
 10
0.0
 20
0.0
 30
0.0
  9
$UCSXDIR
 10
1.0
 20
0.0
 30
0.0
  9
$UCSYDIR
 10
0.0
 20
1.0
 30
0.0
  9
$UCSORTHOREF
  2

  9
$UCSORTHOVIEW
 70
     0
  9
$UCSORGTOP
 10
0.0
 20
0.0
 30
0.0
  9
$UCSORGBOTTOM
 10
0.0
 20
0.0
 30
0.0
  9
$UCSORGLEFT
 10
0.0
 20
0.0
 30
0.0
  9
$UCSORGRIGHT
 10
0.0
 20
0.0
 30
0.0
  9
$UCSORGFRONT
 10
0.0
 20
0.0
 30
0.0
  9
$UCSORGBACK
 10
0.0
 20
0.0
 30
0.0
  9
$PUCSBASE
  2

  9
$PUCSNAME
  2

  9
$PUCSORG
 10
0.0
 20
0.0
 30
0.0
  9
$PUCSXDIR
 10
1.0
 20
0.0
 30
0.0
  9
$PUCSYDIR
 10
0.0
 20
1.0
 30
0.0
  9
$PUCSORTHOREF
  2

  9
$PUCSORTHOVIEW
 70
     0
  9
$PUCSORGTOP
 10
0.0
 20
0.0
 30
0.0
  9
$PUCSORGBOTTOM
 10
0.0
 20
0.0
 30
0.0
  9
$PUCSORGLEFT
 10
0.0
 20
0.0
 30
0.0
  9
$PUCSORGRIGHT
 10
0.0
 20
0.0
 30
0.0
  9
$PUCSORGFRONT
 10
0.0
 20
0.0
 30
0.0
  9
$PUCSORGBACK
 10
0.0
 20
0.0
 30
0.0
  9
$USERI1
 70
     0
  9
$USERI2
 70
     0
  9
$USERI3
 70
     0
  9
$USERI4
 70
     0
  9
$USERI5
 70
     0
  9
$USERR1
 40
0.0
  9
$USERR2
 40
0.0
  9
$USERR3
 40
0.0
  9
$USERR4
 40
0.0
  9
$USERR5
 40
0.0
  9
$WORLDVIEW
 70
     1
  9
$SHADEDGE
 70
     3
  9
$SHADEDIF
 70
    70
  9
$TILEMODE
 70
     1
  9
$MAXACTVP
 70
    64
  9
$PINSBASE
 10
0.0
 20
0.0
 30
0.0
  9
$PLIMCHECK
 70
     0
  9
$PEXTMIN
 10
1.000000000000000E+20
 20
1.000000000000000E+20
 30
1.000000000000000E+20
  9
$PEXTMAX
 10
-1.000000000000000E+20
 20
-1.000000000000000E+20
 30
-1.000000000000000E+20
  9
$PLIMMIN
 10
0.0
 20
0.0
  9
$PLIMMAX
 10
12.0
 20
9.0
  9
$UNITMODE
 70
     0
  9
$VISRETAIN
 70
     1
  9
$PLINEGEN
 70
     0
  9
$PSLTSCALE
 70
     1
  9
$TREEDEPTH
 70
  3020
  9
$CMLSTYLE
  2
Standard
  9
$CMLJUST
 70
     0
  9
$CMLSCALE
 40
1.0
  9
$PROXYGRAPHICS
 70
     1
  9
$MEASUREMENT
 70
     0
  9
$CELWEIGHT
370
    -1
  9
$ENDCAPS
280
     0
  9
$JOINSTYLE
280
     0
  9
$LWDISPLAY
290
     1
  9
$INSUNITS
 70
     1
  9
$HYPERLINKBASE
  1

  9
$STYLESHEET
  1

  9
$XEDIT
290
     1
  9
$CEPSNTYPE
380
     0
  9
$PSTYLEMODE
290
     1
  9
$FINGERPRINTGUID
  2
{CEA77960-181E-EED4-C048-F5A291D33A9A}
  9
$VERSIONGUID
  2
{FAEB1C32-E019-11D5-929B-00C0DF256EC4}
  9
$EXTNAMES
290
     1
  9
$PSVPSCALE
 40
0.0
  9
$OLESTARTUP
290
     0
  9
$SORTENTS
280
   127
  9
$INDEXCTL
280
     0
  9
$HIDETEXT
280
     1
  9
$XCLIPFRAME
280
     2
  9
$HALOGAP
280
     0
  9
$OBSCOLOR
 70
   257
  9
$OBSLTYPE
280
     0
  9
$INTERSECTIONDISPLAY
280
     0
  9
$INTERSECTIONCOLOR
 70
   257
  9
$DIMASSOC
280
     2
  9
$PROJECTNAME
  1

  9
$CAMERADISPLAY
290
     0
  9
$LENSLENGTH
 40
50.0
  9
$CAMERAHEIGHT
 40
0.0
  9
$STEPSPERSEC
 40
2.0
  9
$STEPSIZE
 40
6.0
  9
$3DDWFPREC
 40
2.0
  9
$PSOLWIDTH
 40
0.25
  9
$PSOLHEIGHT
 40
4.0
  9
$LOFTANG1
 40
1.570796326794897
  9
$LOFTANG2
 40
1.570796326794897
  9
$LOFTMAG1
 40
0.0
  9
$LOFTMAG2
 40
0.0
  9
$LOFTPARAM
 70
     7
  9
$LOFTNORMALS
280
     1
  9
$LATITUDE
 40
37.795
  9
$LONGITUDE
 40
-122.394
  9
$NORTHDIRECTION
 40
0.0
  9
$TIMEZONE
 70
 -8000
  9
$LIGHTGLYPHDISPLAY
280
     1
  9
$TILEMODELIGHTSYNCH
280
     1
  9
$CMATERIAL
347
3C
  9
$SOLIDHIST
280
     1
  9
$SHOWHIST
280
     1
  9
$DWFFRAME
280
     2
  9
$DGNFRAME
280
     2
  9
$REALWORLDSCALE
290
     1
  9
$INTERFERECOLOR
 62
   256
  9
$CSHADOW
280
     0
  9
$SHADOWPLANELOCATION
 40
0.0
  0
ENDSEC
  0
SECTION
  2
CLASSES
  0
CLASS
  1
ACDBDICTIONARYWDFLT
  2
AcDbDictionaryWithDefault
  3
ObjectDBX Classes
 90
        0
 91
        4
280
     0
281
     0
  0
CLASS
  1
VISUALSTYLE
  2
AcDbVisualStyle
  3
ObjectDBX Classes
 90
     4095
 91
        4
280
     0
281
     0
  0
CLASS
  1
MATERIAL
  2
AcDbMaterial
  3
ObjectDBX Classes
 90
     1153
 91
        4
280
     0
281
     0
  0
CLASS
  1
SUN
  2
AcDbSun
  3
SCENEOE
 90
     1024
 91
        4
280
     0
281
     0
  0
ENDSEC
  0
SECTION
  2
TABLES
  0
TABLE
  2
VPORT
  5
8
330
0
100
AcDbSymbolTable
 70
     1
  0
VPORT
  5
29
330
8
100
AcDbSymbolTableRecord
100
AcDbViewportTableRecord
  2
*Active
 70
     0
 10
0.0
 20
0.0
 11
1.0
 21
1.0
 12
0.0
 22
0.0
 13
0.0
 23
0.0
 14
0.5
 24
0.5
 15
0.5
 25
0.5
 16
0.0
 26
0.0
 36
1.0
 17
24.0
 27
-12.0
 37
0.0
 40
24.0
 41
2.0
 42
50.0
 43
0.0
 44
0.0
 50
0.0
 51
0.0
 71
     0
 72
   100
 73
     1
 74
     3
 75
     0
 76
     0
 77
     0
 78
     0
281
     0
 65
     1
110
0.0
120
0.0
130
0.0
111
1.0
121
0.0
131
0.0
112
0.0
122
1.0
132
0.0
 79
     0
146
0.0
 60
     3
 61
     5
292
     1
282
     1
141
0.0
142
0.0
 63
   250
361
3F
  0
ENDTAB
  0
TABLE
  2
LTYPE
  5
5
330
0
100
AcDbSymbolTable
 70
     1
  0
LTYPE
  5
14
330
5
100
AcDbSymbolTableRecord
100
AcDbLinetypeTableRecord
  2
ByBlock
 70
     0
  3

 72
    65
 73
     0
 40
0.0
  0
LTYPE
  5
15
330
5
100
AcDbSymbolTableRecord
100
AcDbLinetypeTableRecord
  2
ByLayer
 70
     0
  3

 72
    65
 73
     0
 40
0.0
  0
LTYPE
  5
16
330
5
100
AcDbSymbolTableRecord
100
AcDbLinetypeTableRecord
  2
Continuous
 70
     0
  3
Solid line
 72
    65
 73
     0
 40
0.0
  0
ENDTAB
  0
TABLE
  2
LAYER
  5
2
330
0
100
AcDbSymbolTable
 70
     2
  0
LAYER
  5
10
330
2
100
AcDbSymbolTableRecord
100
AcDbLayerTableRecord
  2
0
 70
     0
 62
     7
  6
Continuous
370
    -3
390
F
347
3E
  0
LAYER
  5
40
330
2
100
AcDbSymbolTableRecord
100
AcDbLayerTableRecord
  2
Layer 1
 70
     0
 62
     7
  6
Continuous
370
    -3
390
F
347
3E
  0
ENDTAB
  0
TABLE
  2
STYLE
  5
3
330
0
100
AcDbSymbolTable
 70
     1
  0
STYLE
  5
11
330
3
100
AcDbSymbolTableRecord
100
AcDbTextStyleTableRecord
  2
Standard
 70
     0
 40
0.0
 41
1.0
 50
0.0
 71
     0
 42
0.2
  3
txt
  4

  0
ENDTAB
  0
TABLE
  2
VIEW
  5
6
330
0
100
AcDbSymbolTable
 70
     0
  0
ENDTAB
  0
TABLE
  2
UCS
  5
7
330
0
100
AcDbSymbolTable
 70
     0
  0
ENDTAB
  0
TABLE
  2
APPID
  5
9
330
0
100
AcDbSymbolTable
 70
     1
  0
APPID
  5
12
330
9
100
AcDbSymbolTableRecord
100
AcDbRegAppTableRecord
  2
ACAD
 70
     0
  0
ENDTAB
  0
TABLE
  2
DIMSTYLE
  5
A
330
0
100
AcDbSymbolTable
 70
     1
100
AcDbDimStyleTable
  0
DIMSTYLE
105
27
330
A
100
AcDbSymbolTableRecord
100
AcDbDimStyleTableRecord
  2
Standard
 70
     0
178
     0
340
11
  0
ENDTAB
  0
TABLE
  2
BLOCK_RECORD
  5
1
330
0
100
AcDbSymbolTable
 70
    25
  0
BLOCK_RECORD
  5
1F
330
1
100
AcDbSymbolTableRecord
100
AcDbBlockTableRecord
  2
*Model_Space
340
22
 70
     0
280
     1
281
     0
  0
BLOCK_RECORD
  5
1B
330
1
100
AcDbSymbolTableRecord
100
AcDbBlockTableRecord
  2
*Paper_Space
340
1E
 70
     0
280
     1
281
     0
  0
BLOCK_RECORD
  5
23
330
1
100
AcDbSymbolTableRecord
100
AcDbBlockTableRecord
  2
*Paper_Space0
340
26
 70
     0
280
     1
281
     0
  0
BLOCK_RECORD
  5
41
330
1
100
AcDbSymbolTableRecord
100
AcDbBlockTableRecord
  2
block 2
340
0
102
{BLKREFS
331
42
102
}
 70
     0
280
     1
281
     0
  0
BLOCK_RECORD
  5
74
330
1
100
AcDbSymbolTableRecord
100
AcDbBlockTableRecord
  2
block 3
340
0
102
{BLKREFS
331
75
102
}
 70
     0
280
     1
281
     0
  0
BLOCK_RECORD
  5
A7
330
1
100
AcDbSymbolTableRecord
100
AcDbBlockTableRecord
  2
block 4
340
0
102
{BLKREFS
331
A8
102
}
 70
     0
280
     1
281
     0
  0
BLOCK_RECORD
  5
D2
330
1
100
AcDbSymbolTableRecord
100
AcDbBlockTableRecord
  2
block 5
340
0
102
{BLKREFS
331
D3
102
}
 70
     0
280
     1
281
     0
  0
BLOCK_RECORD
  5
FD
330
1
100
AcDbSymbolTableRecord
100
AcDbBlockTableRecord
  2
block 6
340
0
102
{BLKREFS
331
FE
102
}
 70
     0
280
     1
281
     0
  0
BLOCK_RECORD
  5
130
330
1
100
AcDbSymbolTableRecord
100
AcDbBlockTableRecord
  2
block 7
340
0
102
{BLKREFS
331
131
102
}
 70
     0
280
     1
281
     0
  0
BLOCK_RECORD
  5
199
330
1
100
AcDbSymbolTableRecord
100
AcDbBlockTableRecord
  2
block 8
340
0
102
{BLKREFS
331
19A
102
}
 70
     0
280
     1
281
     0
  0
BLOCK_RECORD
  5
1C4
330
1
100
AcDbSymbolTableRecord
100
AcDbBlockTableRecord
  2
block 9
340
0
102
{BLKREFS
331
1C5
102
}
 70
     0
280
     1
281
     0
  0
BLOCK_RECORD
  5
1F7
330
1
100
AcDbSymbolTableRecord
100
AcDbBlockTableRecord
  2
block 10
340
0
102
{BLKREFS
331
1F8
102
}
 70
     0
280
     1
281
     0
  0
BLOCK_RECORD
  5
222
330
1
100
AcDbSymbolTableRecord
100
AcDbBlockTableRecord
  2
block 11
340
0
102
{BLKREFS
331
223
102
}
 70
     0
280
     1
281
     0
  0
BLOCK_RECORD
  5
229
330
1
100
AcDbSymbolTableRecord
100
AcDbBlockTableRecord
  2
block 12
340
0
102
{BLKREFS
331
22A
102
}
 70
     0
280
     1
281
     0
  0
BLOCK_RECORD
  5
252
330
1
100
AcDbSymbolTableRecord
100
AcDbBlockTableRecord
  2
block 13
340
0
102
{BLKREFS
331
253
102
}
 70
     0
280
     1
281
     0
  0
BLOCK_RECORD
  5
27B
330
1
100
AcDbSymbolTableRecord
100
AcDbBlockTableRecord
  2
block 14
340
0
102
{BLKREFS
331
27C
102
}
 70
     0
280
     1
281
     0
  0
BLOCK_RECORD
  5
2AE
330
1
100
AcDbSymbolTableRecord
100
AcDbBlockTableRecord
  2
block 15
340
0
102
{BLKREFS
331
2AF
102
}
 70
     0
280
     1
281
     0
  0
BLOCK_RECORD
  5
2E1
330
1
100
AcDbSymbolTableRecord
100
AcDbBlockTableRecord
  2
block 16
340
0
102
{BLKREFS
331
2E2
102
}
 70
     0
280
     1
281
     0
  0
BLOCK_RECORD
  5
30C
330
1
100
AcDbSymbolTableRecord
100
AcDbBlockTableRecord
  2
block 17
340
0
102
{BLKREFS
331
30D
102
}
 70
     0
280
     1
281
     0
  0
BLOCK_RECORD
  5
337
330
1
100
AcDbSymbolTableRecord
100
AcDbBlockTableRecord
  2
block 18
340
0
102
{BLKREFS
331
338
102
}
 70
     0
280
     1
281
     0
  0
BLOCK_RECORD
  5
36A
330
1
100
AcDbSymbolTableRecord
100
AcDbBlockTableRecord
  2
block 19
340
0
102
{BLKREFS
331
36B
102
}
 70
     0
280
     1
281
     0
  0
BLOCK_RECORD
  5
3D3
330
1
100
AcDbSymbolTableRecord
100
AcDbBlockTableRecord
  2
block 20
340
0
102
{BLKREFS
331
3D4
102
}
 70
     0
280
     1
281
     0
  0
BLOCK_RECORD
  5
3FE
330
1
100
AcDbSymbolTableRecord
100
AcDbBlockTableRecord
  2
block 21
340
0
102
{BLKREFS
331
3FF
102
}
 70
     0
280
     1
281
     0
  0
BLOCK_RECORD
  5
431
330
1
100
AcDbSymbolTableRecord
100
AcDbBlockTableRecord
  2
block 22
340
0
102
{BLKREFS
331
432
102
}
 70
     0
280
     1
281
     0
  0
BLOCK_RECORD
  5
436
330
1
100
AcDbSymbolTableRecord
100
AcDbBlockTableRecord
  2
block 23
340
0
102
{BLKREFS
331
437
102
}
 70
     0
280
     1
281
     0
  0
BLOCK_RECORD
  5
461
330
1
100
AcDbSymbolTableRecord
100
AcDbBlockTableRecord
  2
block 24
340
0
102
{BLKREFS
331
462
102
}
 70
     0
280
     1
281
     0
  0
BLOCK_RECORD
  5
48C
330
1
100
AcDbSymbolTableRecord
100
AcDbBlockTableRecord
  2
block 25
340
0
102
{BLKREFS
331
48D
102
}
 70
     0
280
     1
281
     0
  0
ENDTAB
  0
ENDSEC
  0
SECTION
  2
BLOCKS
  0
BLOCK
  5
20
330
1F
100
AcDbEntity
  8
0
100
AcDbBlockBegin
  2
*Model_Space
 70
     0
 10
0.0
 20
0.0
 30
0.0
  3
*Model_Space
  1

  0
ENDBLK
  5
21
330
1F
100
AcDbEntity
  8
0
100
AcDbBlockEnd
  0
BLOCK
  5
1C
330
1B
100
AcDbEntity
 67
     1
  8
0
100
AcDbBlockBegin
  2
*Paper_Space
 70
     0
 10
0.0
 20
0.0
 30
0.0
  3
*Paper_Space
  1

  0
ENDBLK
  5
1D
330
1B
100
AcDbEntity
 67
     1
  8
0
100
AcDbBlockEnd
  0
BLOCK
  5
24
330
23
100
AcDbEntity
  8
0
100
AcDbBlockBegin
  2
*Paper_Space0
 70
     0
 10
0.0
 20
0.0
 30
0.0
  3
*Paper_Space0
  1

  0
ENDBLK
  5
25
330
23
100
AcDbEntity
  8
0
100
AcDbBlockEnd
  0
BLOCK
  5
43
330
41
100
AcDbEntity
  8
0
100
AcDbBlockBegin
  2
block 2
 70
     0
 10
0.0
 20
0.0
 30
0.0
  3
block 2
  1

  0
POLYLINE
  5
45
330
41
100
AcDbEntity
  8
Layer 1
 62
     7
420
 16777215
370
    30
100
AcDb2dPolyline
 66
     1
 10
0.0
 20
0.0
 30
0.0
  0
VERTEX
  5
46
330
45
100
AcDbEntity
  8
Layer 1
 62
     7
420
 16777215
370
    30
100
AcDbVertex
100
AcDb2dVertex
 10
0.5972222329839951
 20
-0.4583333440951062
 30
0.0
  0
VERTEX
  5
47
330
45
100
AcDbEntity
  8
Layer 1
 62
     7
420
 16777215
370
    30
100
AcDbVertex
100
AcDb2dVertex
 10
1.91808841188486
 20
-0.4583333440951062
 30
0.0
  0
VERTEX
  5
48
330
45
100
AcDbEntity
  8
Layer 1
 62
     7
420
 16777215
370
    30
100
AcDbVertex
100
AcDb2dVertex
 10
1.91808841188486
 20
-0.5764435773066022
 30
0.0
  0
VERTEX
  5
49
330
45
100
AcDbEntity
  8
Layer 1
 62
     7
420
 16777215
370
    30
100
AcDbVertex
100
AcDb2dVertex
 10
3.238954590785725
 20
-0.5764435773066022
 30
0.0
  0
VERTEX
  5
4A
330
45
100
AcDbEntity
  8
Layer 1
 62
     7
420
 16777215
370
    30
100
AcDbVertex
100
AcDb2dVertex
 10
3.238954590785725
 20
-0.4583333440951062
 30
0.0
  0
VERTEX
  5
4B
330
45
100
AcDbEntity
  8
Layer 1
 62
     7
420
 16777215
370
    30
100
AcDbVertex
100
AcDb2dVertex
 10
4.144466354015574
 20
-0.4583333440951062
 30
0.0
  0
VERTEX
  5
4C
330
45
100
AcDbEntity
  8
Layer 1
 62
     7
420
 16777215
370
    30
100
AcDbVertex
100
AcDb2dVertex
 10
4.144466354015574
 20
-0.5764435773066022
 30
0.0
  0
VERTEX
  5
4D
330
45
100
AcDbEntity
  8
Layer 1
 62
     7
420
 16777215
370
    30
100
AcDbVertex
100
AcDb2dVertex
 10
5.049978117245423
 20
-0.5764435773066022
 30
0.0
  0
VERTEX
  5
4E
330
45
100
AcDbEntity
  8
Layer 1
 62
     7
420
 16777215
370
    30
100
AcDbVertex
100
AcDb2dVertex
 10
5.049978117245423
 20
-0.4583333440951062
 30
0.0
  0
VERTEX
  5
4F
330
45
100
AcDbEntity
  8
Layer 1
 62
     7
420
 16777215
370
    30
100
AcDbVertex
100
AcDb2dVertex
 10
5.955489880475271
 20
-0.4583333440951062
 30
0.0
  0
VERTEX
  5
50
330
45
100
AcDbEntity
  8
Layer 1
 62
     7
420
 16777215
370
    30
100
AcDbVertex
100
AcDb2dVertex
 10
5.955489880475271
 20
-0.5764435773066022
 30
0.0
  0
VERTEX
  5
51
330
45
100
AcDbEntity
  8
Layer 1
 62
     7
420
 16777215
370
    30
100
AcDbVertex
100
AcDb2dVertex
 10
7.276356398460065
 20
-0.5764435773066022
 30
0.0
  0
VERTEX
  5
52
330
45
100
AcDbEntity
  8
Layer 1
 62
     7
420
 16777215
370
    30
100
AcDbVertex
100
AcDb2dVertex
 10
7.276356398460065
 20
-0.4583333440951062
 30
0.0
  0
VERTEX
  5
53
330
45
100
AcDbEntity
  8
Layer 1
 62
     7
420
 16777215
370
    30
100
AcDbVertex
100
AcDb2dVertex
 10
8.59722257736093
 20
-0.4583333440951062
 30
0.0
  0
VERTEX
  5
54
330
45
100
AcDbEntity
  8
Layer 1
 62
     7
420
 16777215
370
    30
100
AcDbVertex
100
AcDb2dVertex
 10
8.59722257736093
 20
-1.458333387142223
 30
0.0
  0
VERTEX
  5
55
330
45
100
AcDbEntity
  8
Layer 1
 62
     7
420
 16777215
370
    30
100
AcDbVertex
100
AcDb2dVertex
 10
8.479112185203853
 20
-1.458333387142223
 30
0.0
  0
VERTEX
  5
56
330
45
100
AcDbEntity
  8
Layer 1
 62
     7
420
 16777215
370
    30
100
AcDbVertex
100
AcDb2dVertex
 10
8.479112185203853
 20
-2.45833343018934
 30
0.0
  0
VERTEX
  5
57
330
45
100
AcDbEntity
  8
Layer 1
 62
     7
420
 16777215
370
    30
100
AcDbVertex
100
AcDb2dVertex
 10
8.59722257736093
 20
-2.45833343018934
 30
0.0
  0
VERTEX
  5
58
330
45
100
AcDbEntity
  8
Layer 1
 62
     7
420
 16777215
370
    30
100
AcDbVertex
100
AcDb2dVertex
 10
8.59722257736093
 20
-3.458333303694492
 30
0.0
  0
VERTEX
  5
59
330
45
100
AcDbEntity
  8
Layer 1
 62
     7
420
 16777215
370
    30
100
AcDbVertex
100
AcDb2dVertex
 10
8.479112185203853
 20
-3.458333303694492
 30
0.0
  0
VERTEX
  5
5A
330
45
100
AcDbEntity
  8
Layer 1
 62
     7
420
 16777215
370
    30
100
AcDbVertex
100
AcDb2dVertex
 10
8.479112185203853
 20
-4.458333516283574
 30
0.0
  0
VERTEX
  5
5B
330
45
100
AcDbEntity
  8
Layer 1
 62
     7
420
 16777215
370
    30
100
AcDbVertex
100
AcDb2dVertex
 10
8.59722257736093
 20
-4.458333516283574
 30
0.0
  0
VERTEX
  5
5C
330
45
100
AcDbEntity
  8
Layer 1
 62
     7
420
 16777215
370
    30
100
AcDbVertex
100
AcDb2dVertex
 10
8.59722257736093
 20
-5.458333389788726
 30
0.0
  0
VERTEX
  5
5D
330
45
100
AcDbEntity
  8
Layer 1
 62
     7
420
 16777215
370
    30
100
AcDbVertex
100
AcDb2dVertex
 10
7.276356398460065
 20
-5.458333389788726
 30
0.0
  0
VERTEX
  5
5E
330
45
100
AcDbEntity
  8
Layer 1
 62
     7
420
 16777215
370
    30
100
AcDbVertex
100
AcDb2dVertex
 10
7.276356398460065
 20
-5.340223336715578
 30
0.0
  0
VERTEX
  5
5F
330
45
100
AcDbEntity
  8
Layer 1
 62
     7
420
 16777215
370
    30
100
AcDbVertex
100
AcDb2dVertex
 10
5.955489880475271
 20
-5.340223336715578
 30
0.0
  0
VERTEX
  5
60
330
45
100
AcDbEntity
  8
Layer 1
 62
     7
420
 16777215
370
    30
100
AcDbVertex
100
AcDb2dVertex
 10
5.955489880475271
 20
-5.458333389788726
 30
0.0
  0
VERTEX
  5
61
330
45
100
AcDbEntity
  8
Layer 1
 62
     7
420
 16777215
370
    30
100
AcDbVertex
100
AcDb2dVertex
 10
5.049978117245423
 20
-5.458333389788726
 30
0.0
  0
VERTEX
  5
62
330
45
100
AcDbEntity
  8
Layer 1
 62
     7
420
 16777215
370
    30
100
AcDbVertex
100
AcDb2dVertex
 10
5.049978117245423
 20
-5.340223336715578
 30
0.0
  0
VERTEX
  5
63
330
45
100
AcDbEntity
  8
Layer 1
 62
     7
420
 16777215
370
    30
100
AcDbVertex
100
AcDb2dVertex
 10
4.144466354015574
 20
-5.340223336715578
 30
0.0
  0
VERTEX
  5
64
330
45
100
AcDbEntity
  8
Layer 1
 62
     7
420
 16777215
370
    30
100
AcDbVertex
100
AcDb2dVertex
 10
4.144466354015574
 20
-5.458333389788726
 30
0.0
  0
VERTEX
  5
65
330
45
100
AcDbEntity
  8
Layer 1
 62
     7
420
 16777215
370
    30
100
AcDbVertex
100
AcDb2dVertex
 10
3.238954590785725
 20
-5.458333389788726
 30
0.0
  0
VERTEX
  5
66
330
45
100
AcDbEntity
  8
Layer 1
 62
     7
420
 16777215
370
    30
100
AcDbVertex
100
AcDb2dVertex
 10
3.238954590785725
 20
-5.340223336715578
 30
0.0
  0
VERTEX
  5
67
330
45
100
AcDbEntity
  8
Layer 1
 62
     7
420
 16777215
370
    30
100
AcDbVertex
100
AcDb2dVertex
 10
1.91808841188486
 20
-5.340223336715578
 30
0.0
  0
VERTEX
  5
68
330
45
100
AcDbEntity
  8
Layer 1
 62
     7
420
 16777215
370
    30
100
AcDbVertex
100
AcDb2dVertex
 10
1.91808841188486
 20
-5.458333389788726
 30
0.0
  0
VERTEX
  5
69
330
45
100
AcDbEntity
  8
Layer 1
 62
     7
420
 16777215
370
    30
100
AcDbVertex
100
AcDb2dVertex
 10
0.5972222329839951
 20
-5.458333389788726
 30
0.0
  0
VERTEX
  5
6A
330
45
100
AcDbEntity
  8
Layer 1
 62
     7
420
 16777215
370
    30
100
AcDbVertex
100
AcDb2dVertex
 10
0.5972222329839951
 20
-4.458333516283574
 30
0.0
  0
VERTEX
  5
6B
330
45
100
AcDbEntity
  8
Layer 1
 62
     7
420
 16777215
370
    30
100
AcDbVertex
100
AcDb2dVertex
 10
0.7153324661954912
 20
-4.458333516283574
 30
0.0
  0
VERTEX
  5
6C
330
45
100
AcDbEntity
  8
Layer 1
 62
     7
420
 16777215
370
    30
100
AcDbVertex
100
AcDb2dVertex
 10
0.7153324661954912
 20
-3.458333303694492
 30
0.0
  0
VERTEX
  5
6D
330
45
100
AcDbEntity
  8
Layer 1
 62
     7
420
 16777215
370
    30
100
AcDbVertex
100
AcDb2dVertex
 10
0.5972222329839951
 20
-3.458333303694492
 30
0.0
  0
VERTEX
  5
6E
330
45
100
AcDbEntity
  8
Layer 1
 62
     7
420
 16777215
370
    30
100
AcDbVertex
100
AcDb2dVertex
 10
0.5972222329839951
 20
-2.45833343018934
 30
0.0
  0
VERTEX
  5
6F
330
45
100
AcDbEntity
  8
Layer 1
 62
     7
420
 16777215
370
    30
100
AcDbVertex
100
AcDb2dVertex
 10
0.7153324661954912
 20
-2.45833343018934
 30
0.0
  0
VERTEX
  5
70
330
45
100
AcDbEntity
  8
Layer 1
 62
     7
420
 16777215
370
    30
100
AcDbVertex
100
AcDb2dVertex
 10
0.7153324661954912
 20
-1.458333387142223
 30
0.0
  0
VERTEX
  5
71
330
45
100
AcDbEntity
  8
Layer 1
 62
     7
420
 16777215
370
    30
100
AcDbVertex
100
AcDb2dVertex
 10
0.5972222329839951
 20
-1.458333387142223
 30
0.0
  0
VERTEX
  5
72
330
45
100
AcDbEntity
  8
Layer 1
 62
     7
420
 16777215
370
    30
100
AcDbVertex
100
AcDb2dVertex
 10
0.5972222329839951
 20
-0.4583333440951062
 30
0.0
  0
SEQEND
  5
73
330
45
100
AcDbEntity
  8
Layer 1
 62
     7
420
 16777215
370
    30
  0
ENDBLK
  5
44
330
41
100
AcDbEntity
  8
0
100
AcDbBlockEnd
  0
BLOCK
  5
76
330
74
100
AcDbEntity
  8
0
100
AcDbBlockBegin
  2
block 3
 70
     0
 10
0.0
 20
0.0
 30
0.0
  3
block 3
  1

  0
POLYLINE
  5
78
330
74
100
AcDbEntity
  8
Layer 1
 62
     7
420
 16777215
370
    30
100
AcDb2dPolyline
 66
     1
 10
0.0
 20
0.0
 30
0.0
  0
VERTEX
  5
79
330
78
100
AcDbEntity
  8
Layer 1
 62
     7
420
 16777215
370
    30
100
AcDbVertex
100
AcDb2dVertex
 10
6.11111125432237
 20
-5.819444455206217
 30
0.0
  0
VERTEX
  5
7A
330
78
100
AcDbEntity
  8
Layer 1
 62
     7
420
 16777215
370
    30
100
AcDbVertex
100
AcDb2dVertex
 10
7.431977433223235
 20
-5.819444455206217
 30
0.0
  0
VERTEX
  5
7B
330
78
100
AcDbEntity
  8
Layer 1
 62
     7
420
 16777215
370
    30
100
AcDbVertex
100
AcDb2dVertex
 10
7.431977433223235
 20
-5.937554688417713
 30
0.0
  0
VERTEX
  5
7C
330
78
100
AcDbEntity
  8
Layer 1
 62
     7
420
 16777215
370
    30
100
AcDbVertex
100
AcDb2dVertex
 10
8.7528436121241
 20
-5.937554688417713
 30
0.0
  0
VERTEX
  5
7D
330
78
100
AcDbEntity
  8
Layer 1
 62
     7
420
 16777215
370
    30
100
AcDbVertex
100
AcDb2dVertex
 10
8.7528436121241
 20
-5.819444455206217
 30
0.0
  0
VERTEX
  5
7E
330
78
100
AcDbEntity
  8
Layer 1
 62
     7
420
 16777215
370
    30
100
AcDbVertex
100
AcDb2dVertex
 10
9.658355375353949
 20
-5.819444455206217
 30
0.0
  0
VERTEX
  5
7F
330
78
100
AcDbEntity
  8
Layer 1
 62
     7
420
 16777215
370
    30
100
AcDbVertex
100
AcDb2dVertex
 10
9.658355375353949
 20
-5.937554688417713
 30
0.0
  0
VERTEX
  5
80
330
78
100
AcDbEntity
  8
Layer 1
 62
     7
420
 16777215
370
    30
100
AcDbVertex
100
AcDb2dVertex
 10
10.5638671385838
 20
-5.937554688417713
 30
0.0
  0
VERTEX
  5
81
330
78
100
AcDbEntity
  8
Layer 1
 62
     7
420
 16777215
370
    30
100
AcDbVertex
100
AcDb2dVertex
 10
10.5638671385838
 20
-5.819444455206217
 30
0.0
  0
VERTEX
  5
82
330
78
100
AcDbEntity
  8
Layer 1
 62
     7
420
 16777215
370
    30
100
AcDbVertex
100
AcDb2dVertex
 10
11.46937890181364
 20
-5.819444455206217
 30
0.0
  0
VERTEX
  5
83
330
78
100
AcDbEntity
  8
Layer 1
 62
     7
420
 16777215
370
    30
100
AcDbVertex
100
AcDb2dVertex
 10
11.46937890181364
 20
-5.937554688417713
 30
0.0
  0
VERTEX
  5
84
330
78
100
AcDbEntity
  8
Layer 1
 62
     7
420
 16777215
370
    30
100
AcDbVertex
100
AcDb2dVertex
 10
12.79024541979844
 20
-5.937554688417713
 30
0.0
  0
VERTEX
  5
85
330
78
100
AcDbEntity
  8
Layer 1
 62
     7
420
 16777215
370
    30
100
AcDbVertex
100
AcDb2dVertex
 10
12.79024541979844
 20
-5.819444455206217
 30
0.0
  0
VERTEX
  5
86
330
78
100
AcDbEntity
  8
Layer 1
 62
     7
420
 16777215
370
    30
100
AcDbVertex
100
AcDb2dVertex
 10
14.1111115986993
 20
-5.819444455206217
 30
0.0
  0
VERTEX
  5
87
330
78
100
AcDbEntity
  8
Layer 1
 62
     7
420
 16777215
370
    30
100
AcDbVertex
100
AcDb2dVertex
 10
14.1111115986993
 20
-6.819444498253334
 30
0.0
  0
VERTEX
  5
88
330
78
100
AcDbEntity
  8
Layer 1
 62
     7
420
 16777215
370
    30
100
AcDbVertex
100
AcDb2dVertex
 10
13.99300120654223
 20
-6.819444498253334
 30
0.0
  0
VERTEX
  5
89
330
78
100
AcDbEntity
  8
Layer 1
 62
     7
420
 16777215
370
    30
100
AcDbVertex
100
AcDb2dVertex
 10
13.99300120654223
 20
-7.819444541300451
 30
0.0
  0
VERTEX
  5
8A
330
78
100
AcDbEntity
  8
Layer 1
 62
     7
420
 16777215
370
    30
100
AcDbVertex
100
AcDb2dVertex
 10
14.1111115986993
 20
-7.819444541300451
 30
0.0
  0
VERTEX
  5
8B
330
78
100
AcDbEntity
  8
Layer 1
 62
     7
420
 16777215
370
    30
100
AcDbVertex
100
AcDb2dVertex
 10
14.1111115986993
 20
-8.819444414805604
 30
0.0
  0
VERTEX
  5
8C
330
78
100
AcDbEntity
  8
Layer 1
 62
     7
420
 16777215
370
    30
100
AcDbVertex
100
AcDb2dVertex
 10
13.99300120654223
 20
-8.819444414805604
 30
0.0
  0
VERTEX
  5
8D
330
78
100
AcDbEntity
  8
Layer 1
 62
     7
420
 16777215
370
    30
100
AcDbVertex
100
AcDb2dVertex
 10
13.99300120654223
 20
-9.819444627394684
 30
0.0
  0
VERTEX
  5
8E
330
78
100
AcDbEntity
  8
Layer 1
 62
     7
420
 16777215
370
    30
100
AcDbVertex
100
AcDb2dVertex
 10
14.1111115986993
 20
-9.819444627394684
 30
0.0
  0
VERTEX
  5
8F
330
78
100
AcDbEntity
  8
Layer 1
 62
     7
420
 16777215
370
    30
100
AcDbVertex
100
AcDb2dVertex
 10
14.1111115986993
 20
-10.81944450089984
 30
0.0
  0
VERTEX
  5
90
330
78
100
AcDbEntity
  8
Layer 1
 62
     7
420
 16777215
370
    30
100
AcDbVertex
100
AcDb2dVertex
 10
12.79024541979844
 20
-10.81944450089984
 30
0.0
  0
VERTEX
  5
91
330
78
100
AcDbEntity
  8
Layer 1
 62
     7
420
 16777215
370
    30
100
AcDbVertex
100
AcDb2dVertex
 10
12.79024541979844
 20
-10.70133444782669
 30
0.0
  0
VERTEX
  5
92
330
78
100
AcDbEntity
  8
Layer 1
 62
     7
420
 16777215
370
    30
100
AcDbVertex
100
AcDb2dVertex
 10
11.46937890181364
 20
-10.70133444782669
 30
0.0
  0
VERTEX
  5
93
330
78
100
AcDbEntity
  8
Layer 1
 62
     7
420
 16777215
370
    30
100
AcDbVertex
100
AcDb2dVertex
 10
11.46937890181364
 20
-10.81944450089984
 30
0.0
  0
VERTEX
  5
94
330
78
100
AcDbEntity
  8
Layer 1
 62
     7
420
 16777215
370
    30
100
AcDbVertex
100
AcDb2dVertex
 10
10.5638671385838
 20
-10.81944450089984
 30
0.0
  0
VERTEX
  5
95
330
78
100
AcDbEntity
  8
Layer 1
 62
     7
420
 16777215
370
    30
100
AcDbVertex
100
AcDb2dVertex
 10
10.5638671385838
 20
-10.70133444782669
 30
0.0
  0
VERTEX
  5
96
330
78
100
AcDbEntity
  8
Layer 1
 62
     7
420
 16777215
370
    30
100
AcDbVertex
100
AcDb2dVertex
 10
9.658355375353949
 20
-10.70133444782669
 30
0.0
  0
VERTEX
  5
97
330
78
100
AcDbEntity
  8
Layer 1
 62
     7
420
 16777215
370
    30
100
AcDbVertex
100
AcDb2dVertex
 10
9.658355375353949
 20
-10.81944450089984
 30
0.0
  0
VERTEX
  5
98
330
78
100
AcDbEntity
  8
Layer 1
 62
     7
420
 16777215
370
    30
100
AcDbVertex
100
AcDb2dVertex
 10
8.7528436121241
 20
-10.81944450089984
 30
0.0
  0
VERTEX
  5
99
330
78
100
AcDbEntity
  8
Layer 1
 62
     7
420
 16777215
370
    30
100
AcDbVertex
100
AcDb2dVertex
 10
8.7528436121241
 20
-10.70133444782669
 30
0.0
  0
VERTEX
  5
9A
330
78
100
AcDbEntity
  8
Layer 1
 62
     7
420
 16777215
370
    30
100
AcDbVertex
100
AcDb2dVertex
 10
7.431977433223235
 20
-10.70133444782669
 30
0.0
  0
VERTEX
  5
9B
330
78
100
AcDbEntity
  8
Layer 1
 62
     7
420
 16777215
370
    30
100
AcDbVertex
100
AcDb2dVertex
 10
7.431977433223235
 20
-10.81944450089984
 30
0.0
  0
VERTEX
  5
9C
330
78
100
AcDbEntity
  8
Layer 1
 62
     7
420
 16777215
370
    30
100
AcDbVertex
100
AcDb2dVertex
 10
6.11111125432237
 20
-10.81944450089984
 30
0.0
  0
VERTEX
  5
9D
330
78
100
AcDbEntity
  8
Layer 1
 62
     7
420
 16777215
370
    30
100
AcDbVertex
100
AcDb2dVertex
 10
6.11111125432237
 20
-9.819444627394684
 30
0.0
  0
VERTEX
  5
9E
330
78
100
AcDbEntity
  8
Layer 1
 62
     7
420
 16777215
370
    30
100
AcDbVertex
100
AcDb2dVertex
 10
6.229221487533827
 20
-9.819444627394684
 30
0.0
  0
VERTEX
  5
9F
330
78
100
AcDbEntity
  8
Layer 1
 62
     7
420
 16777215
370
    30
100
AcDbVertex
100
AcDb2dVertex
 10
6.229221487533827
 20
-8.819444414805604
 30
0.0
  0
VERTEX
  5
A0
330
78
100
AcDbEntity
  8
Layer 1
 62
     7
420
 16777215
370
    30
100
AcDbVertex
100
AcDb2dVertex
 10
6.11111125432237
 20
-8.819444414805604
 30
0.0
  0
VERTEX
  5
A1
330
78
100
AcDbEntity
  8
Layer 1
 62
     7
420
 16777215
370
    30
100
AcDbVertex
100
AcDb2dVertex
 10
6.11111125432237
 20
-7.819444541300451
 30
0.0
  0
VERTEX
  5
A2
330
78
100
AcDbEntity
  8
Layer 1
 62
     7
420
 16777215
370
    30
100
AcDbVertex
100
AcDb2dVertex
 10
6.229221487533827
 20
-7.819444541300451
 30
0.0
  0
VERTEX
  5
A3
330
78
100
AcDbEntity
  8
Layer 1
 62
     7
420
 16777215
370
    30
100
AcDbVertex
100
AcDb2dVertex
 10
6.229221487533827
 20
-6.819444498253334
 30
0.0
  0
VERTEX
  5
A4
330
78
100
AcDbEntity
  8
Layer 1
 62
     7
420
 16777215
370
    30
100
AcDbVertex
100
AcDb2dVertex
 10
6.11111125432237
 20
-6.819444498253334
 30
0.0
  0
VERTEX
  5
A5
330
78
100
AcDbEntity
  8
Layer 1
 62
     7
420
 16777215
370
    30
100
AcDbVertex
100
AcDb2dVertex
 10
6.11111125432237
 20
-5.819444455206217
 30
0.0
  0
SEQEND
  5
A6
330
78
100
AcDbEntity
  8
Layer 1
 62
     7
420
 16777215
370
    30
  0
ENDBLK
  5
77
330
74
100
AcDbEntity
  8
0
100
AcDbBlockEnd
  0
BLOCK
  5
A9
330
A7
100
AcDbEntity
  8
0
100
AcDbBlockBegin
  2
block 4
 70
     0
 10
0.0
 20
0.0
 30
0.0
  3
block 4
  1

  0
POLYLINE
  5
AB
330
A7
100
AcDbEntity
  8
Layer 1
 62
     7
420
 16777215
370
    30
100
AcDb2dPolyline
 66
     1
 10
0.0
 20
0.0
 30
0.0
  0
VERTEX
  5
AC
330
AB
100
AcDbEntity
  8
Layer 1
 62
     7
420
 16777215
370
    30
100
AcDbVertex
100
AcDb2dVertex
 10
0.7153329430218996
 20
-5.819444455206217
 30
0.0
  0
VERTEX
  5
AD
330
AB
100
AcDbEntity
  8
Layer 1
 62
     7
420
 16777215
370
    30
100
AcDbVertex
100
AcDb2dVertex
 10
1.597222752857533
 20
-5.819444455206217
 30
0.0
  0
VERTEX
  5
AE
330
AB
100
AcDbEntity
  8
Layer 1
 62
     7
420
 16777215
370
    30
100
AcDbVertex
100
AcDb2dVertex
 10
1.597222752857533
 20
-5.937554688417713
 30
0.0
  0
VERTEX
  5
AF
330
AB
100
AcDbEntity
  8
Layer 1
 62
     7
420
 16777215
370
    30
100
AcDbVertex
100
AcDb2dVertex
 10
2.59722279590465
 20
-5.937554688417713
 30
0.0
  0
VERTEX
  5
B0
330
AB
100
AcDbEntity
  8
Layer 1
 62
     7
420
 16777215
370
    30
100
AcDbVertex
100
AcDb2dVertex
 10
2.59722279590465
 20
-5.819444455206217
 30
0.0
  0
VERTEX
  5
B1
330
AB
100
AcDbEntity
  8
Layer 1
 62
     7
420
 16777215
370
    30
100
AcDbVertex
100
AcDb2dVertex
 10
3.597222669409803
 20
-5.819444455206217
 30
0.0
  0
VERTEX
  5
B2
330
AB
100
AcDbEntity
  8
Layer 1
 62
     7
420
 16777215
370
    30
100
AcDbVertex
100
AcDb2dVertex
 10
3.597222669409803
 20
-5.937554688417713
 30
0.0
  0
VERTEX
  5
B3
330
AB
100
AcDbEntity
  8
Layer 1
 62
     7
420
 16777215
370
    30
100
AcDbVertex
100
AcDb2dVertex
 10
4.597222881998883
 20
-5.937554688417713
 30
0.0
  0
VERTEX
  5
B4
330
AB
100
AcDbEntity
  8
Layer 1
 62
     7
420
 16777215
370
    30
100
AcDbVertex
100
AcDb2dVertex
 10
4.597222881998883
 20
-5.819444455206217
 30
0.0
  0
VERTEX
  5
B5
330
AB
100
AcDbEntity
  8
Layer 1
 62
     7
420
 16777215
370
    30
100
AcDbVertex
100
AcDb2dVertex
 10
5.479112702430888
 20
-5.819444455206217
 30
0.0
  0
VERTEX
  5
B6
330
AB
100
AcDbEntity
  8
Layer 1
 62
     7
420
 16777215
370
    30
100
AcDbVertex
100
AcDb2dVertex
 10
5.479112702430888
 20
-6.819444498253334
 30
0.0
  0
VERTEX
  5
B7
330
AB
100
AcDbEntity
  8
Layer 1
 62
     7
420
 16777215
370
    30
100
AcDbVertex
100
AcDb2dVertex
 10
5.597222755504036
 20
-6.819444498253334
 30
0.0
  0
VERTEX
  5
B8
330
AB
100
AcDbEntity
  8
Layer 1
 62
     7
420
 16777215
370
    30
100
AcDbVertex
100
AcDb2dVertex
 10
5.597222755504036
 20
-7.819444541300451
 30
0.0
  0
VERTEX
  5
B9
330
AB
100
AcDbEntity
  8
Layer 1
 62
     7
420
 16777215
370
    30
100
AcDbVertex
100
AcDb2dVertex
 10
5.479112702430888
 20
-7.819444541300451
 30
0.0
  0
VERTEX
  5
BA
330
AB
100
AcDbEntity
  8
Layer 1
 62
     7
420
 16777215
370
    30
100
AcDbVertex
100
AcDb2dVertex
 10
5.479112702430888
 20
-8.819444414805604
 30
0.0
  0
VERTEX
  5
BB
330
AB
100
AcDbEntity
  8
Layer 1
 62
     7
420
 16777215
370
    30
100
AcDbVertex
100
AcDb2dVertex
 10
5.597222755504036
 20
-8.819444414805604
 30
0.0
  0
VERTEX
  5
BC
330
AB
100
AcDbEntity
  8
Layer 1
 62
     7
420
 16777215
370
    30
100
AcDbVertex
100
AcDb2dVertex
 10
5.597222755504036
 20
-9.819444627394684
 30
0.0
  0
VERTEX
  5
BD
330
AB
100
AcDbEntity
  8
Layer 1
 62
     7
420
 16777215
370
    30
100
AcDbVertex
100
AcDb2dVertex
 10
5.479112702430888
 20
-9.819444627394684
 30
0.0
  0
VERTEX
  5
BE
330
AB
100
AcDbEntity
  8
Layer 1
 62
     7
420
 16777215
370
    30
100
AcDbVertex
100
AcDb2dVertex
 10
5.479112702430888
 20
-10.81944450089984
 30
0.0
  0
VERTEX
  5
BF
330
AB
100
AcDbEntity
  8
Layer 1
 62
     7
420
 16777215
370
    30
100
AcDbVertex
100
AcDb2dVertex
 10
4.597222881998883
 20
-10.81944450089984
 30
0.0
  0
VERTEX
  5
C0
330
AB
100
AcDbEntity
  8
Layer 1
 62
     7
420
 16777215
370
    30
100
AcDbVertex
100
AcDb2dVertex
 10
4.597222881998883
 20
-10.70133444782669
 30
0.0
  0
VERTEX
  5
C1
330
AB
100
AcDbEntity
  8
Layer 1
 62
     7
420
 16777215
370
    30
100
AcDbVertex
100
AcDb2dVertex
 10
3.597222669409803
 20
-10.70133444782669
 30
0.0
  0
VERTEX
  5
C2
330
AB
100
AcDbEntity
  8
Layer 1
 62
     7
420
 16777215
370
    30
100
AcDbVertex
100
AcDb2dVertex
 10
3.597222669409803
 20
-10.81944450089984
 30
0.0
  0
VERTEX
  5
C3
330
AB
100
AcDbEntity
  8
Layer 1
 62
     7
420
 16777215
370
    30
100
AcDbVertex
100
AcDb2dVertex
 10
2.59722279590465
 20
-10.81944450089984
 30
0.0
  0
VERTEX
  5
C4
330
AB
100
AcDbEntity
  8
Layer 1
 62
     7
420
 16777215
370
    30
100
AcDbVertex
100
AcDb2dVertex
 10
2.59722279590465
 20
-10.70133444782669
 30
0.0
  0
VERTEX
  5
C5
330
AB
100
AcDbEntity
  8
Layer 1
 62
     7
420
 16777215
370
    30
100
AcDbVertex
100
AcDb2dVertex
 10
1.597222752857533
 20
-10.70133444782669
 30
0.0
  0
VERTEX
  5
C6
330
AB
100
AcDbEntity
  8
Layer 1
 62
     7
420
 16777215
370
    30
100
AcDbVertex
100
AcDb2dVertex
 10
1.597222752857533
 20
-10.81944450089984
 30
0.0
  0
VERTEX
  5
C7
330
AB
100
AcDbEntity
  8
Layer 1
 62
     7
420
 16777215
370
    30
100
AcDbVertex
100
AcDb2dVertex
 10
0.7153329430218996
 20
-10.81944450089984
 30
0.0
  0
VERTEX
  5
C8
330
AB
100
AcDbEntity
  8
Layer 1
 62
     7
420
 16777215
370
    30
100
AcDbVertex
100
AcDb2dVertex
 10
0.7153329430218996
 20
-9.819444627394684
 30
0.0
  0
VERTEX
  5
C9
330
AB
100
AcDbEntity
  8
Layer 1
 62
     7
420
 16777215
370
    30
100
AcDbVertex
100
AcDb2dVertex
 10
0.5972227098104163
 20
-9.819444627394684
 30
0.0
  0
VERTEX
  5
CA
330
AB
100
AcDbEntity
  8
Layer 1
 62
     7
420
 16777215
370
    30
100
AcDbVertex
100
AcDb2dVertex
 10
0.5972227098104163
 20
-8.819444414805604
 30
0.0
  0
VERTEX
  5
CB
330
AB
100
AcDbEntity
  8
Layer 1
 62
     7
420
 16777215
370
    30
100
AcDbVertex
100
AcDb2dVertex
 10
0.7153329430218996
 20
-8.819444414805604
 30
0.0
  0
VERTEX
  5
CC
330
AB
100
AcDbEntity
  8
Layer 1
 62
     7
420
 16777215
370
    30
100
AcDbVertex
100
AcDb2dVertex
 10
0.7153329430218996
 20
-7.819444541300451
 30
0.0
  0
VERTEX
  5
CD
330
AB
100
AcDbEntity
  8
Layer 1
 62
     7
420
 16777215
370
    30
100
AcDbVertex
100
AcDb2dVertex
 10
0.5972227098104163
 20
-7.819444541300451
 30
0.0
  0
VERTEX
  5
CE
330
AB
100
AcDbEntity
  8
Layer 1
 62
     7
420
 16777215
370
    30
100
AcDbVertex
100
AcDb2dVertex
 10
0.5972227098104163
 20
-6.819444498253334
 30
0.0
  0
VERTEX
  5
CF
330
AB
100
AcDbEntity
  8
Layer 1
 62
     7
420
 16777215
370
    30
100
AcDbVertex
100
AcDb2dVertex
 10
0.7153329430218996
 20
-6.819444498253334
 30
0.0
  0
VERTEX
  5
D0
330
AB
100
AcDbEntity
  8
Layer 1
 62
     7
420
 16777215
370
    30
100
AcDbVertex
100
AcDb2dVertex
 10
0.7153329430218996
 20
-5.819444455206217
 30
0.0
  0
SEQEND
  5
D1
330
AB
100
AcDbEntity
  8
Layer 1
 62
     7
420
 16777215
370
    30
  0
ENDBLK
  5
AA
330
A7
100
AcDbEntity
  8
0
100
AcDbBlockEnd
  0
BLOCK
  5
D4
330
D2
100
AcDbEntity
  8
0
100
AcDbBlockBegin
  2
block 5
 70
     0
 10
0.0
 20
0.0
 30
0.0
  3
block 5
  1

  0
POLYLINE
  5
D6
330
D2
100
AcDbEntity
  8
Layer 1
 62
     7
420
 16777215
370
    30
100
AcDb2dPolyline
 66
     1
 10
0.0
 20
0.0
 30
0.0
  0
VERTEX
  5
D7
330
D6
100
AcDbEntity
  8
Layer 1
 62
     7
420
 16777215
370
    30
100
AcDbVertex
100
AcDb2dVertex
 10
14.43755516524412
 20
-5.611111294722983
 30
0.0
  0
VERTEX
  5
D8
330
D6
100
AcDbEntity
  8
Layer 1
 62
     7
420
 16777215
370
    30
100
AcDbVertex
100
AcDb2dVertex
 10
15.31944497507975
 20
-5.611111294722983
 30
0.0
  0
VERTEX
  5
D9
330
D6
100
AcDbEntity
  8
Layer 1
 62
     7
420
 16777215
370
    30
100
AcDbVertex
100
AcDb2dVertex
 10
15.31944497507975
 20
-5.729221527934467
 30
0.0
  0
VERTEX
  5
DA
330
D6
100
AcDbEntity
  8
Layer 1
 62
     7
420
 16777215
370
    30
100
AcDbVertex
100
AcDb2dVertex
 10
16.31944501812687
 20
-5.729221527934467
 30
0.0
  0
VERTEX
  5
DB
330
D6
100
AcDbEntity
  8
Layer 1
 62
     7
420
 16777215
370
    30
100
AcDbVertex
100
AcDb2dVertex
 10
16.31944501812687
 20
-5.611111294722983
 30
0.0
  0
VERTEX
  5
DC
330
D6
100
AcDbEntity
  8
Layer 1
 62
     7
420
 16777215
370
    30
100
AcDbVertex
100
AcDb2dVertex
 10
17.31944489163202
 20
-5.611111294722983
 30
0.0
  0
VERTEX
  5
DD
330
D6
100
AcDbEntity
  8
Layer 1
 62
     7
420
 16777215
370
    30
100
AcDbVertex
100
AcDb2dVertex
 10
17.31944489163202
 20
-5.729221527934467
 30
0.0
  0
VERTEX
  5
DE
330
D6
100
AcDbEntity
  8
Layer 1
 62
     7
420
 16777215
370
    30
100
AcDbVertex
100
AcDb2dVertex
 10
18.31944510422111
 20
-5.729221527934467
 30
0.0
  0
VERTEX
  5
DF
330
D6
100
AcDbEntity
  8
Layer 1
 62
     7
420
 16777215
370
    30
100
AcDbVertex
100
AcDb2dVertex
 10
18.31944510422111
 20
-5.611111294722983
 30
0.0
  0
VERTEX
  5
E0
330
D6
100
AcDbEntity
  8
Layer 1
 62
     7
420
 16777215
370
    30
100
AcDbVertex
100
AcDb2dVertex
 10
19.20133492465311
 20
-5.611111294722983
 30
0.0
  0
VERTEX
  5
E1
330
D6
100
AcDbEntity
  8
Layer 1
 62
     7
420
 16777215
370
    30
100
AcDbVertex
100
AcDb2dVertex
 10
19.20133492465311
 20
-6.6111113377701
 30
0.0
  0
VERTEX
  5
E2
330
D6
100
AcDbEntity
  8
Layer 1
 62
     7
420
 16777215
370
    30
100
AcDbVertex
100
AcDb2dVertex
 10
19.31944497772626
 20
-6.6111113377701
 30
0.0
  0
VERTEX
  5
E3
330
D6
100
AcDbEntity
  8
Layer 1
 62
     7
420
 16777215
370
    30
100
AcDbVertex
100
AcDb2dVertex
 10
19.31944497772626
 20
-7.611111380817217
 30
0.0
  0
VERTEX
  5
E4
330
D6
100
AcDbEntity
  8
Layer 1
 62
     7
420
 16777215
370
    30
100
AcDbVertex
100
AcDb2dVertex
 10
19.20133492465311
 20
-7.611111380817217
 30
0.0
  0
VERTEX
  5
E5
330
D6
100
AcDbEntity
  8
Layer 1
 62
     7
420
 16777215
370
    30
100
AcDbVertex
100
AcDb2dVertex
 10
19.20133492465311
 20
-8.61111125432237
 30
0.0
  0
VERTEX
  5
E6
330
D6
100
AcDbEntity
  8
Layer 1
 62
     7
420
 16777215
370
    30
100
AcDbVertex
100
AcDb2dVertex
 10
19.31944497772626
 20
-8.61111125432237
 30
0.0
  0
VERTEX
  5
E7
330
D6
100
AcDbEntity
  8
Layer 1
 62
     7
420
 16777215
370
    30
100
AcDbVertex
100
AcDb2dVertex
 10
19.31944497772626
 20
-9.611111466911451
 30
0.0
  0
VERTEX
  5
E8
330
D6
100
AcDbEntity
  8
Layer 1
 62
     7
420
 16777215
370
    30
100
AcDbVertex
100
AcDb2dVertex
 10
19.20133492465311
 20
-9.611111466911451
 30
0.0
  0
VERTEX
  5
E9
330
D6
100
AcDbEntity
  8
Layer 1
 62
     7
420
 16777215
370
    30
100
AcDbVertex
100
AcDb2dVertex
 10
19.20133492465311
 20
-10.6111113404166
 30
0.0
  0
VERTEX
  5
EA
330
D6
100
AcDbEntity
  8
Layer 1
 62
     7
420
 16777215
370
    30
100
AcDbVertex
100
AcDb2dVertex
 10
18.31944510422111
 20
-10.6111113404166
 30
0.0
  0
VERTEX
  5
EB
330
D6
100
AcDbEntity
  8
Layer 1
 62
     7
420
 16777215
370
    30
100
AcDbVertex
100
AcDb2dVertex
 10
18.31944510422111
 20
-10.49300128734346
 30
0.0
  0
VERTEX
  5
EC
330
D6
100
AcDbEntity
  8
Layer 1
 62
     7
420
 16777215
370
    30
100
AcDbVertex
100
AcDb2dVertex
 10
17.31944489163202
 20
-10.49300128734346
 30
0.0
  0
VERTEX
  5
ED
330
D6
100
AcDbEntity
  8
Layer 1
 62
     7
420
 16777215
370
    30
100
AcDbVertex
100
AcDb2dVertex
 10
17.31944489163202
 20
-10.6111113404166
 30
0.0
  0
VERTEX
  5
EE
330
D6
100
AcDbEntity
  8
Layer 1
 62
     7
420
 16777215
370
    30
100
AcDbVertex
100
AcDb2dVertex
 10
16.31944501812687
 20
-10.6111113404166
 30
0.0
  0
VERTEX
  5
EF
330
D6
100
AcDbEntity
  8
Layer 1
 62
     7
420
 16777215
370
    30
100
AcDbVertex
100
AcDb2dVertex
 10
16.31944501812687
 20
-10.49300128734346
 30
0.0
  0
VERTEX
  5
F0
330
D6
100
AcDbEntity
  8
Layer 1
 62
     7
420
 16777215
370
    30
100
AcDbVertex
100
AcDb2dVertex
 10
15.31944497507975
 20
-10.49300128734346
 30
0.0
  0
VERTEX
  5
F1
330
D6
100
AcDbEntity
  8
Layer 1
 62
     7
420
 16777215
370
    30
100
AcDbVertex
100
AcDb2dVertex
 10
15.31944497507975
 20
-10.6111113404166
 30
0.0
  0
VERTEX
  5
F2
330
D6
100
AcDbEntity
  8
Layer 1
 62
     7
420
 16777215
370
    30
100
AcDbVertex
100
AcDb2dVertex
 10
14.43755516524412
 20
-10.6111113404166
 30
0.0
  0
VERTEX
  5
F3
330
D6
100
AcDbEntity
  8
Layer 1
 62
     7
420
 16777215
370
    30
100
AcDbVertex
100
AcDb2dVertex
 10
14.43755516524412
 20
-9.611111466911451
 30
0.0
  0
VERTEX
  5
F4
330
D6
100
AcDbEntity
  8
Layer 1
 62
     7
420
 16777215
370
    30
100
AcDbVertex
100
AcDb2dVertex
 10
14.31944493203264
 20
-9.611111466911451
 30
0.0
  0
VERTEX
  5
F5
330
D6
100
AcDbEntity
  8
Layer 1
 62
     7
420
 16777215
370
    30
100
AcDbVertex
100
AcDb2dVertex
 10
14.31944493203264
 20
-8.61111125432237
 30
0.0
  0
VERTEX
  5
F6
330
D6
100
AcDbEntity
  8
Layer 1
 62
     7
420
 16777215
370
    30
100
AcDbVertex
100
AcDb2dVertex
 10
14.43755516524412
 20
-8.61111125432237
 30
0.0
  0
VERTEX
  5
F7
330
D6
100
AcDbEntity
  8
Layer 1
 62
     7
420
 16777215
370
    30
100
AcDbVertex
100
AcDb2dVertex
 10
14.43755516524412
 20
-7.611111380817217
 30
0.0
  0
VERTEX
  5
F8
330
D6
100
AcDbEntity
  8
Layer 1
 62
     7
420
 16777215
370
    30
100
AcDbVertex
100
AcDb2dVertex
 10
14.31944493203264
 20
-7.611111380817217
 30
0.0
  0
VERTEX
  5
F9
330
D6
100
AcDbEntity
  8
Layer 1
 62
     7
420
 16777215
370
    30
100
AcDbVertex
100
AcDb2dVertex
 10
14.31944493203264
 20
-6.6111113377701
 30
0.0
  0
VERTEX
  5
FA
330
D6
100
AcDbEntity
  8
Layer 1
 62
     7
420
 16777215
370
    30
100
AcDbVertex
100
AcDb2dVertex
 10
14.43755516524412
 20
-6.6111113377701
 30
0.0
  0
VERTEX
  5
FB
330
D6
100
AcDbEntity
  8
Layer 1
 62
     7
420
 16777215
370
    30
100
AcDbVertex
100
AcDb2dVertex
 10
14.43755516524412
 20
-5.611111294722983
 30
0.0
  0
SEQEND
  5
FC
330
D6
100
AcDbEntity
  8
Layer 1
 62
     7
420
 16777215
370
    30
  0
ENDBLK
  5
D5
330
D2
100
AcDbEntity
  8
0
100
AcDbBlockEnd
  0
BLOCK
  5
FF
330
FD
100
AcDbEntity
  8
0
100
AcDbBlockBegin
  2
block 6
 70
     0
 10
0.0
 20
0.0
 30
0.0
  3
block 6
  1

  0
POLYLINE
  5
101
330
FD
100
AcDbEntity
  8
Layer 1
 62
     7
420
 16777215
370
    30
100
AcDb2dPolyline
 66
     1
 10
0.0
 20
0.0
 30
0.0
  0
VERTEX
  5
102
330
101
100
AcDbEntity
  8
Layer 1
 62
     7
420
 16777215
370
    30
100
AcDbVertex
100
AcDb2dVertex
 10
8.937554688417713
 20
-0.5764437501566892
 30
0.0
  0
VERTEX
  5
103
330
101
100
AcDbEntity
  8
Layer 1
 62
     7
420
 16777215
370
    30
100
AcDbVertex
100
AcDb2dVertex
 10
10.14031063410708
 20
-0.5764437501566892
 30
0.0
  0
VERTEX
  5
104
330
101
100
AcDbEntity
  8
Layer 1
 62
     7
420
 16777215
370
    30
100
AcDbVertex
100
AcDb2dVertex
 10
10.14031063410708
 20
-0.4583335169452059
 30
0.0
  0
VERTEX
  5
105
330
101
100
AcDbEntity
  8
Layer 1
 62
     7
420
 16777215
370
    30
100
AcDbVertex
100
AcDb2dVertex
 10
11.46117681300795
 20
-0.4583335169452059
 30
0.0
  0
VERTEX
  5
106
330
101
100
AcDbEntity
  8
Layer 1
 62
     7
420
 16777215
370
    30
100
AcDbVertex
100
AcDb2dVertex
 10
11.46117681300795
 20
-0.5764437501566892
 30
0.0
  0
VERTEX
  5
107
330
101
100
AcDbEntity
  8
Layer 1
 62
     7
420
 16777215
370
    30
100
AcDbVertex
100
AcDb2dVertex
 10
12.3666885762378
 20
-0.5764437501566892
 30
0.0
  0
VERTEX
  5
108
330
101
100
AcDbEntity
  8
Layer 1
 62
     7
420
 16777215
370
    30
100
AcDbVertex
100
AcDb2dVertex
 10
12.3666885762378
 20
-0.4583335169452059
 30
0.0
  0
VERTEX
  5
109
330
101
100
AcDbEntity
  8
Layer 1
 62
     7
420
 16777215
370
    30
100
AcDbVertex
100
AcDb2dVertex
 10
13.27220033946764
 20
-0.4583335169452059
 30
0.0
  0
VERTEX
  5
10A
330
101
100
AcDbEntity
  8
Layer 1
 62
     7
420
 16777215
370
    30
100
AcDbVertex
100
AcDb2dVertex
 10
13.27220033946764
 20
-0.5764437501566892
 30
0.0
  0
VERTEX
  5
10B
330
101
100
AcDbEntity
  8
Layer 1
 62
     7
420
 16777215
370
    30
100
AcDbVertex
100
AcDb2dVertex
 10
14.17771210269749
 20
-0.5764437501566892
 30
0.0
  0
VERTEX
  5
10C
330
101
100
AcDbEntity
  8
Layer 1
 62
     7
420
 16777215
370
    30
100
AcDbVertex
100
AcDb2dVertex
 10
14.17771210269749
 20
-0.4583335169452059
 30
0.0
  0
VERTEX
  5
10D
330
101
100
AcDbEntity
  8
Layer 1
 62
     7
420
 16777215
370
    30
100
AcDbVertex
100
AcDb2dVertex
 10
15.49857862068229
 20
-0.4583335169452059
 30
0.0
  0
VERTEX
  5
10E
330
101
100
AcDbEntity
  8
Layer 1
 62
     7
420
 16777215
370
    30
100
AcDbVertex
100
AcDb2dVertex
 10
15.49857862068229
 20
-0.5764437501566892
 30
0.0
  0
VERTEX
  5
10F
330
101
100
AcDbEntity
  8
Layer 1
 62
     7
420
 16777215
370
    30
100
AcDbVertex
100
AcDb2dVertex
 10
16.70133440742607
 20
-0.5764437501566892
 30
0.0
  0
VERTEX
  5
110
330
101
100
AcDbEntity
  8
Layer 1
 62
     7
420
 16777215
370
    30
100
AcDbVertex
100
AcDb2dVertex
 10
16.70133440742607
 20
-1.458333559992323
 30
0.0
  0
VERTEX
  5
111
330
101
100
AcDbEntity
  8
Layer 1
 62
     7
420
 16777215
370
    30
100
AcDbVertex
100
AcDb2dVertex
 10
16.81944479958315
 20
-1.458333559992323
 30
0.0
  0
VERTEX
  5
112
330
101
100
AcDbEntity
  8
Layer 1
 62
     7
420
 16777215
370
    30
100
AcDbVertex
100
AcDb2dVertex
 10
16.81944479958315
 20
-2.458333603039439
 30
0.0
  0
VERTEX
  5
113
330
101
100
AcDbEntity
  8
Layer 1
 62
     7
420
 16777215
370
    30
100
AcDbVertex
100
AcDb2dVertex
 10
16.70133440742607
 20
-2.458333603039439
 30
0.0
  0
VERTEX
  5
114
330
101
100
AcDbEntity
  8
Layer 1
 62
     7
420
 16777215
370
    30
100
AcDbVertex
100
AcDb2dVertex
 10
16.70133440742607
 20
-3.458333476544592
 30
0.0
  0
VERTEX
  5
115
330
101
100
AcDbEntity
  8
Layer 1
 62
     7
420
 16777215
370
    30
100
AcDbVertex
100
AcDb2dVertex
 10
16.81944479958315
 20
-3.458333476544592
 30
0.0
  0
VERTEX
  5
116
330
101
100
AcDbEntity
  8
Layer 1
 62
     7
420
 16777215
370
    30
100
AcDbVertex
100
AcDb2dVertex
 10
16.81944479958315
 20
-4.458333689133673
 30
0.0
  0
VERTEX
  5
117
330
101
100
AcDbEntity
  8
Layer 1
 62
     7
420
 16777215
370
    30
100
AcDbVertex
100
AcDb2dVertex
 10
16.70133440742607
 20
-4.458333689133673
 30
0.0
  0
VERTEX
  5
118
330
101
100
AcDbEntity
  8
Layer 1
 62
     7
420
 16777215
370
    30
100
AcDbVertex
100
AcDb2dVertex
 10
16.70133440742607
 20
-5.340223509565678
 30
0.0
  0
VERTEX
  5
119
330
101
100
AcDbEntity
  8
Layer 1
 62
     7
420
 16777215
370
    30
100
AcDbVertex
100
AcDb2dVertex
 10
15.49857862068229
 20
-5.340223509565678
 30
0.0
  0
VERTEX
  5
11A
330
101
100
AcDbEntity
  8
Layer 1
 62
     7
420
 16777215
370
    30
100
AcDbVertex
100
AcDb2dVertex
 10
15.49857862068229
 20
-5.458333562638826
 30
0.0
  0
VERTEX
  5
11B
330
101
100
AcDbEntity
  8
Layer 1
 62
     7
420
 16777215
370
    30
100
AcDbVertex
100
AcDb2dVertex
 10
14.17771210269749
 20
-5.458333562638826
 30
0.0
  0
VERTEX
  5
11C
330
101
100
AcDbEntity
  8
Layer 1
 62
     7
420
 16777215
370
    30
100
AcDbVertex
100
AcDb2dVertex
 10
14.17771210269749
 20
-5.340223509565678
 30
0.0
  0
VERTEX
  5
11D
330
101
100
AcDbEntity
  8
Layer 1
 62
     7
420
 16777215
370
    30
100
AcDbVertex
100
AcDb2dVertex
 10
13.27220033946764
 20
-5.340223509565678
 30
0.0
  0
VERTEX
  5
11E
330
101
100
AcDbEntity
  8
Layer 1
 62
     7
420
 16777215
370
    30
100
AcDbVertex
100
AcDb2dVertex
 10
13.27220033946764
 20
-5.458333562638826
 30
0.0
  0
VERTEX
  5
11F
330
101
100
AcDbEntity
  8
Layer 1
 62
     7
420
 16777215
370
    30
100
AcDbVertex
100
AcDb2dVertex
 10
12.3666885762378
 20
-5.458333562638826
 30
0.0
  0
VERTEX
  5
120
330
101
100
AcDbEntity
  8
Layer 1
 62
     7
420
 16777215
370
    30
100
AcDbVertex
100
AcDb2dVertex
 10
12.3666885762378
 20
-5.340223509565678
 30
0.0
  0
VERTEX
  5
121
330
101
100
AcDbEntity
  8
Layer 1
 62
     7
420
 16777215
370
    30
100
AcDbVertex
100
AcDb2dVertex
 10
11.46117681300795
 20
-5.340223509565678
 30
0.0
  0
VERTEX
  5
122
330
101
100
AcDbEntity
  8
Layer 1
 62
     7
420
 16777215
370
    30
100
AcDbVertex
100
AcDb2dVertex
 10
11.46117681300795
 20
-5.458333562638826
 30
0.0
  0
VERTEX
  5
123
330
101
100
AcDbEntity
  8
Layer 1
 62
     7
420
 16777215
370
    30
100
AcDbVertex
100
AcDb2dVertex
 10
10.14031063410708
 20
-5.458333562638826
 30
0.0
  0
VERTEX
  5
124
330
101
100
AcDbEntity
  8
Layer 1
 62
     7
420
 16777215
370
    30
100
AcDbVertex
100
AcDb2dVertex
 10
10.14031063410708
 20
-5.340223509565678
 30
0.0
  0
VERTEX
  5
125
330
101
100
AcDbEntity
  8
Layer 1
 62
     7
420
 16777215
370
    30
100
AcDbVertex
100
AcDb2dVertex
 10
8.937554688417713
 20
-5.340223509565678
 30
0.0
  0
VERTEX
  5
126
330
101
100
AcDbEntity
  8
Layer 1
 62
     7
420
 16777215
370
    30
100
AcDbVertex
100
AcDb2dVertex
 10
8.937554688417713
 20
-4.458333689133673
 30
0.0
  0
VERTEX
  5
127
330
101
100
AcDbEntity
  8
Layer 1
 62
     7
420
 16777215
370
    30
100
AcDbVertex
100
AcDb2dVertex
 10
8.819444455206217
 20
-4.458333689133673
 30
0.0
  0
VERTEX
  5
128
330
101
100
AcDbEntity
  8
Layer 1
 62
     7
420
 16777215
370
    30
100
AcDbVertex
100
AcDb2dVertex
 10
8.819444455206217
 20
-3.458333476544592
 30
0.0
  0
VERTEX
  5
129
330
101
100
AcDbEntity
  8
Layer 1
 62
     7
420
 16777215
370
    30
100
AcDbVertex
100
AcDb2dVertex
 10
8.937554688417713
 20
-3.458333476544592
 30
0.0
  0
VERTEX
  5
12A
330
101
100
AcDbEntity
  8
Layer 1
 62
     7
420
 16777215
370
    30
100
AcDbVertex
100
AcDb2dVertex
 10
8.937554688417713
 20
-2.458333603039439
 30
0.0
  0
VERTEX
  5
12B
330
101
100
AcDbEntity
  8
Layer 1
 62
     7
420
 16777215
370
    30
100
AcDbVertex
100
AcDb2dVertex
 10
8.819444455206217
 20
-2.458333603039439
 30
0.0
  0
VERTEX
  5
12C
330
101
100
AcDbEntity
  8
Layer 1
 62
     7
420
 16777215
370
    30
100
AcDbVertex
100
AcDb2dVertex
 10
8.819444455206217
 20
-1.458333559992323
 30
0.0
  0
VERTEX
  5
12D
330
101
100
AcDbEntity
  8
Layer 1
 62
     7
420
 16777215
370
    30
100
AcDbVertex
100
AcDb2dVertex
 10
8.937554688417713
 20
-1.458333559992323
 30
0.0
  0
VERTEX
  5
12E
330
101
100
AcDbEntity
  8
Layer 1
 62
     7
420
 16777215
370
    30
100
AcDbVertex
100
AcDb2dVertex
 10
8.937554688417713
 20
-0.5764437501566892
 30
0.0
  0
SEQEND
  5
12F
330
101
100
AcDbEntity
  8
Layer 1
 62
     7
420
 16777215
370
    30
  0
ENDBLK
  5
100
330
FD
100
AcDbEntity
  8
0
100
AcDbBlockEnd
  0
BLOCK
  5
132
330
130
100
AcDbEntity
  8
0
100
AcDbBlockBegin
  2
block 7
 70
     0
 10
0.0
 20
0.0
 30
0.0
  3
block 7
  1

  0
POLYLINE
  5
134
330
130
100
AcDbEntity
  8
Layer 1
 62
     7
420
 16777215
370
    30
100
AcDb2dPolyline
 66
     1
 10
0.0
 20
0.0
 30
0.0
  0
VERTEX
  5
135
330
134
100
AcDbEntity
  8
Layer 1
 62
     7
420
 16777215
370
    30
100
AcDbVertex
100
AcDb2dVertex
 10
0.7153325986449646
 20
-11.29866597237894
 30
0.0
  0
VERTEX
  5
136
330
134
100
AcDbEntity
  8
Layer 1
 62
     7
420
 16777215
370
    30
100
AcDbVertex
100
AcDb2dVertex
 10
1.918088544334346
 20
-11.29866597237894
 30
0.0
  0
VERTEX
  5
137
330
134
100
AcDbEntity
  8
Layer 1
 62
     7
420
 16777215
370
    30
100
AcDbVertex
100
AcDb2dVertex
 10
1.918088544334346
 20
-11.18055573916743
 30
0.0
  0
VERTEX
  5
138
330
134
100
AcDbEntity
  8
Layer 1
 62
     7
420
 16777215
370
    30
100
AcDbVertex
100
AcDb2dVertex
 10
3.238954723235211
 20
-11.18055573916743
 30
0.0
  0
VERTEX
  5
139
330
134
100
AcDbEntity
  8
Layer 1
 62
     7
420
 16777215
370
    30
100
AcDbVertex
100
AcDb2dVertex
 10
3.238954723235211
 20
-11.29866597237894
 30
0.0
  0
VERTEX
  5
13A
330
134
100
AcDbEntity
  8
Layer 1
 62
     7
420
 16777215
370
    30
100
AcDbVertex
100
AcDb2dVertex
 10
4.14446648646506
 20
-11.29866597237894
 30
0.0
  0
VERTEX
  5
13B
330
134
100
AcDbEntity
  8
Layer 1
 62
     7
420
 16777215
370
    30
100
AcDbVertex
100
AcDb2dVertex
 10
4.14446648646506
 20
-11.18055573916743
 30
0.0
  0
VERTEX
  5
13C
330
134
100
AcDbEntity
  8
Layer 1
 62
     7
420
 16777215
370
    30
100
AcDbVertex
100
AcDb2dVertex
 10
5.049978249694909
 20
-11.18055573916743
 30
0.0
  0
VERTEX
  5
13D
330
134
100
AcDbEntity
  8
Layer 1
 62
     7
420
 16777215
370
    30
100
AcDbVertex
100
AcDb2dVertex
 10
5.049978249694909
 20
-11.29866597237894
 30
0.0
  0
VERTEX
  5
13E
330
134
100
AcDbEntity
  8
Layer 1
 62
     7
420
 16777215
370
    30
100
AcDbVertex
100
AcDb2dVertex
 10
5.955490012924757
 20
-11.29866597237894
 30
0.0
  0
VERTEX
  5
13F
330
134
100
AcDbEntity
  8
Layer 1
 62
     7
420
 16777215
370
    30
100
AcDbVertex
100
AcDb2dVertex
 10
5.955490012924757
 20
-11.18055573916743
 30
0.0
  0
VERTEX
  5
140
330
134
100
AcDbEntity
  8
Layer 1
 62
     7
420
 16777215
370
    30
100
AcDbVertex
100
AcDb2dVertex
 10
7.276356530909551
 20
-11.18055573916743
 30
0.0
  0
VERTEX
  5
141
330
134
100
AcDbEntity
  8
Layer 1
 62
     7
420
 16777215
370
    30
100
AcDbVertex
100
AcDb2dVertex
 10
7.276356530909551
 20
-11.29866597237894
 30
0.0
  0
VERTEX
  5
142
330
134
100
AcDbEntity
  8
Layer 1
 62
     7
420
 16777215
370
    30
100
AcDbVertex
100
AcDb2dVertex
 10
8.479112317653339
 20
-11.29866597237894
 30
0.0
  0
VERTEX
  5
143
330
134
100
AcDbEntity
  8
Layer 1
 62
     7
420
 16777215
370
    30
100
AcDbVertex
100
AcDb2dVertex
 10
8.479112317653339
 20
-12.18055578221457
 30
0.0
  0
VERTEX
  5
144
330
134
100
AcDbEntity
  8
Layer 1
 62
     7
420
 16777215
370
    30
100
AcDbVertex
100
AcDb2dVertex
 10
8.597222709810415
 20
-12.18055578221457
 30
0.0
  0
VERTEX
  5
145
330
134
100
AcDbEntity
  8
Layer 1
 62
     7
420
 16777215
370
    30
100
AcDbVertex
100
AcDb2dVertex
 10
8.597222709810415
 20
-13.18055582526166
 30
0.0
  0
VERTEX
  5
146
330
134
100
AcDbEntity
  8
Layer 1
 62
     7
420
 16777215
370
    30
100
AcDbVertex
100
AcDb2dVertex
 10
8.479112317653339
 20
-13.18055582526166
 30
0.0
  0
VERTEX
  5
147
330
134
100
AcDbEntity
  8
Layer 1
 62
     7
420
 16777215
370
    30
100
AcDbVertex
100
AcDb2dVertex
 10
8.479112317653339
 20
-14.18055569876681
 30
0.0
  0
VERTEX
  5
148
330
134
100
AcDbEntity
  8
Layer 1
 62
     7
420
 16777215
370
    30
100
AcDbVertex
100
AcDb2dVertex
 10
8.597222709810415
 20
-14.18055569876681
 30
0.0
  0
VERTEX
  5
149
330
134
100
AcDbEntity
  8
Layer 1
 62
     7
420
 16777215
370
    30
100
AcDbVertex
100
AcDb2dVertex
 10
8.597222709810415
 20
-15.1805559113559
 30
0.0
  0
VERTEX
  5
14A
330
134
100
AcDbEntity
  8
Layer 1
 62
     7
420
 16777215
370
    30
100
AcDbVertex
100
AcDb2dVertex
 10
8.479112317653339
 20
-15.1805559113559
 30
0.0
  0
VERTEX
  5
14B
330
134
100
AcDbEntity
  8
Layer 1
 62
     7
420
 16777215
370
    30
100
AcDbVertex
100
AcDb2dVertex
 10
8.479112317653339
 20
-16.0624457317879
 30
0.0
  0
VERTEX
  5
14C
330
134
100
AcDbEntity
  8
Layer 1
 62
     7
420
 16777215
370
    30
100
AcDbVertex
100
AcDb2dVertex
 10
7.276356530909551
 20
-16.0624457317879
 30
0.0
  0
VERTEX
  5
14D
330
134
100
AcDbEntity
  8
Layer 1
 62
     7
420
 16777215
370
    30
100
AcDbVertex
100
AcDb2dVertex
 10
7.276356530909551
 20
-16.18055578486105
 30
0.0
  0
VERTEX
  5
14E
330
134
100
AcDbEntity
  8
Layer 1
 62
     7
420
 16777215
370
    30
100
AcDbVertex
100
AcDb2dVertex
 10
5.955490012924757
 20
-16.18055578486105
 30
0.0
  0
VERTEX
  5
14F
330
134
100
AcDbEntity
  8
Layer 1
 62
     7
420
 16777215
370
    30
100
AcDbVertex
100
AcDb2dVertex
 10
5.955490012924757
 20
-16.0624457317879
 30
0.0
  0
VERTEX
  5
150
330
134
100
AcDbEntity
  8
Layer 1
 62
     7
420
 16777215
370
    30
100
AcDbVertex
100
AcDb2dVertex
 10
5.049978249694909
 20
-16.0624457317879
 30
0.0
  0
VERTEX
  5
151
330
134
100
AcDbEntity
  8
Layer 1
 62
     7
420
 16777215
370
    30
100
AcDbVertex
100
AcDb2dVertex
 10
5.049978249694909
 20
-16.18055578486105
 30
0.0
  0
VERTEX
  5
152
330
134
100
AcDbEntity
  8
Layer 1
 62
     7
420
 16777215
370
    30
100
AcDbVertex
100
AcDb2dVertex
 10
4.14446648646506
 20
-16.18055578486105
 30
0.0
  0
VERTEX
  5
153
330
134
100
AcDbEntity
  8
Layer 1
 62
     7
420
 16777215
370
    30
100
AcDbVertex
100
AcDb2dVertex
 10
4.14446648646506
 20
-16.0624457317879
 30
0.0
  0
VERTEX
  5
154
330
134
100
AcDbEntity
  8
Layer 1
 62
     7
420
 16777215
370
    30
100
AcDbVertex
100
AcDb2dVertex
 10
3.238954723235211
 20
-16.0624457317879
 30
0.0
  0
VERTEX
  5
155
330
134
100
AcDbEntity
  8
Layer 1
 62
     7
420
 16777215
370
    30
100
AcDbVertex
100
AcDb2dVertex
 10
3.238954723235211
 20
-16.18055578486105
 30
0.0
  0
VERTEX
  5
156
330
134
100
AcDbEntity
  8
Layer 1
 62
     7
420
 16777215
370
    30
100
AcDbVertex
100
AcDb2dVertex
 10
1.918088544334346
 20
-16.18055578486105
 30
0.0
  0
VERTEX
  5
157
330
134
100
AcDbEntity
  8
Layer 1
 62
     7
420
 16777215
370
    30
100
AcDbVertex
100
AcDb2dVertex
 10
1.918088544334346
 20
-16.0624457317879
 30
0.0
  0
VERTEX
  5
158
330
134
100
AcDbEntity
  8
Layer 1
 62
     7
420
 16777215
370
    30
100
AcDbVertex
100
AcDb2dVertex
 10
0.7153325986449646
 20
-16.0624457317879
 30
0.0
  0
VERTEX
  5
159
330
134
100
AcDbEntity
  8
Layer 1
 62
     7
420
 16777215
370
    30
100
AcDbVertex
100
AcDb2dVertex
 10
0.7153325986449646
 20
-15.1805559113559
 30
0.0
  0
VERTEX
  5
15A
330
134
100
AcDbEntity
  8
Layer 1
 62
     7
420
 16777215
370
    30
100
AcDbVertex
100
AcDb2dVertex
 10
0.5972223654334812
 20
-15.1805559113559
 30
0.0
  0
VERTEX
  5
15B
330
134
100
AcDbEntity
  8
Layer 1
 62
     7
420
 16777215
370
    30
100
AcDbVertex
100
AcDb2dVertex
 10
0.5972223654334812
 20
-14.18055569876681
 30
0.0
  0
VERTEX
  5
15C
330
134
100
AcDbEntity
  8
Layer 1
 62
     7
420
 16777215
370
    30
100
AcDbVertex
100
AcDb2dVertex
 10
0.7153325986449646
 20
-14.18055569876681
 30
0.0
  0
VERTEX
  5
15D
330
134
100
AcDbEntity
  8
Layer 1
 62
     7
420
 16777215
370
    30
100
AcDbVertex
100
AcDb2dVertex
 10
0.7153325986449646
 20
-13.18055582526166
 30
0.0
  0
VERTEX
  5
15E
330
134
100
AcDbEntity
  8
Layer 1
 62
     7
420
 16777215
370
    30
100
AcDbVertex
100
AcDb2dVertex
 10
0.5972223654334812
 20
-13.18055582526166
 30
0.0
  0
VERTEX
  5
15F
330
134
100
AcDbEntity
  8
Layer 1
 62
     7
420
 16777215
370
    30
100
AcDbVertex
100
AcDb2dVertex
 10
0.5972223654334812
 20
-12.18055578221457
 30
0.0
  0
VERTEX
  5
160
330
134
100
AcDbEntity
  8
Layer 1
 62
     7
420
 16777215
370
    30
100
AcDbVertex
100
AcDb2dVertex
 10
0.7153325986449646
 20
-12.18055578221457
 30
0.0
  0
VERTEX
  5
161
330
134
100
AcDbEntity
  8
Layer 1
 62
     7
420
 16777215
370
    30
100
AcDbVertex
100
AcDb2dVertex
 10
0.7153325986449646
 20
-11.29866597237894
 30
0.0
  0
SEQEND
  5
162
330
134
100
AcDbEntity
  8
Layer 1
 62
     7
420
 16777215
370
    30
  0
ENDBLK
  5
133
330
130
100
AcDbEntity
  8
0
100
AcDbBlockEnd
  0
BLOCK
  5
19B
330
199
100
AcDbEntity
  8
0
100
AcDbBlockBegin
  2
block 8
 70
     0
 10
0.0
 20
0.0
 30
0.0
  3
block 8
  1

  0
POLYLINE
  5
19D
330
199
100
AcDbEntity
  8
Layer 1
 62
     7
420
 16777215
370
    30
100
AcDb2dPolyline
 66
     1
 10
0.0
 20
0.0
 30
0.0
  0
VERTEX
  5
19E
330
19D
100
AcDbEntity
  8
Layer 1
 62
     7
420
 16777215
370
    30
100
AcDbVertex
100
AcDb2dVertex
 10
9.076373275493602
 20
-14.05135652132215
 30
0.0
  0
VERTEX
  5
19F
330
19D
100
AcDbEntity
  8
Layer 1
 62
     7
420
 16777215
370
    30
100
AcDbVertex
100
AcDb2dVertex
 10
9.081550622559512
 20
-13.56144518470561
 30
0.0
  0
VERTEX
  5
1A0
330
19D
100
AcDbEntity
  8
Layer 1
 62
     7
420
 16777215
370
    30
100
AcDbVertex
100
AcDb2dVertex
 10
9.148147951396165
 20
-13.56214898039118
 30
0.0
  0
VERTEX
  5
1A1
330
19D
100
AcDbEntity
  8
Layer 1
 62
     7
420
 16777215
370
    30
100
AcDbVertex
100
AcDb2dVertex
 10
9.15401869310454
 20
-13.0066245234331
 30
0.0
  0
VERTEX
  5
1A2
330
19D
100
AcDbEntity
  8
Layer 1
 62
     7
420
 16777215
370
    30
100
AcDbVertex
100
AcDb2dVertex
 10
9.087421364267938
 20
-13.00592072774745
 30
0.0
  0
VERTEX
  5
1A3
330
19D
100
AcDbEntity
  8
Layer 1
 62
     7
420
 16777215
370
    30
100
AcDbVertex
100
AcDb2dVertex
 10
9.093292104980971
 20
-12.45039636497404
 30
0.0
  0
VERTEX
  5
1A4
330
19D
100
AcDbEntity
  8
Layer 1
 62
     7
420
 16777215
370
    30
100
AcDbVertex
100
AcDb2dVertex
 10
9.159889433817574
 20
-12.45110016065968
 30
0.0
  0
VERTEX
  5
1A5
330
19D
100
AcDbEntity
  8
Layer 1
 62
     7
420
 16777215
370
    30
100
AcDbVertex
100
AcDb2dVertex
 10
9.165760176521264
 20
-11.89557560951686
 30
0.0
  0
VERTEX
  5
1A6
330
19D
100
AcDbEntity
  8
Layer 1
 62
     7
420
 16777215
370
    30
100
AcDbVertex
100
AcDb2dVertex
 10
9.099162847684712
 20
-11.89487181383119
 30
0.0
  0
VERTEX
  5
1A7
330
19D
100
AcDbEntity
  8
Layer 1
 62
     7
420
 16777215
370
    30
100
AcDbVertex
100
AcDb2dVertex
 10
9.104340194812796
 20
-11.40496047132814
 30
0.0
  0
VERTEX
  5
1A8
330
19D
100
AcDbEntity
  8
Layer 1
 62
     7
420
 16777215
370
    30
100
AcDbVertex
100
AcDb2dVertex
 10
9.668197617600173
 20
-11.41091927520804
 30
0.0
  0
VERTEX
  5
1A9
330
19D
100
AcDbEntity
  8
Layer 1
 62
     7
420
 16777215
370
    30
100
AcDbVertex
100
AcDb2dVertex
 10
9.668891011185071
 20
-11.34530625493779
 30
0.0
  0
VERTEX
  5
1AA
330
19D
100
AcDbEntity
  8
Layer 1
 62
     7
420
 16777215
370
    30
100
AcDbVertex
100
AcDb2dVertex
 10
10.23274843397247
 20
-11.35126505881774
 30
0.0
  0
VERTEX
  5
1AB
330
19D
100
AcDbEntity
  8
Layer 1
 62
     7
420
 16777215
370
    30
100
AcDbVertex
100
AcDb2dVertex
 10
10.23205504038752
 20
-11.41687807908801
 30
0.0
  0
VERTEX
  5
1AC
330
19D
100
AcDbEntity
  8
Layer 1
 62
     7
420
 16777215
370
    30
100
AcDbVertex
100
AcDb2dVertex
 10
10.79591236757743
 20
-11.42283688195771
 30
0.0
  0
VERTEX
  5
1AD
330
19D
100
AcDbEntity
  8
Layer 1
 62
     7
420
 16777215
370
    30
100
AcDbVertex
100
AcDb2dVertex
 10
10.7966057611623
 20
-11.35722386168744
 30
0.0
  0
VERTEX
  5
1AE
330
19D
100
AcDbEntity
  8
Layer 1
 62
     7
420
 16777215
370
    30
100
AcDbVertex
100
AcDb2dVertex
 10
11.36046327954717
 20
-11.36318266657766
 30
0.0
  0
VERTEX
  5
1AF
330
19D
100
AcDbEntity
  8
Layer 1
 62
     7
420
 16777215
370
    30
100
AcDbVertex
100
AcDb2dVertex
 10
11.35976988596227
 20
-11.42879568684798
 30
0.0
  0
VERTEX
  5
1B0
330
19D
100
AcDbEntity
  8
Layer 1
 62
     7
420
 16777215
370
    30
100
AcDbVertex
100
AcDb2dVertex
 10
11.92362721315213
 20
-11.43475448971761
 30
0.0
  0
VERTEX
  5
1B1
330
19D
100
AcDbEntity
  8
Layer 1
 62
     7
420
 16777215
370
    30
100
AcDbVertex
100
AcDb2dVertex
 10
11.91844986602405
 20
-11.92466583222075
 30
0.0
  0
VERTEX
  5
1B2
330
19D
100
AcDbEntity
  8
Layer 1
 62
     7
420
 16777215
370
    30
100
AcDbVertex
100
AcDb2dVertex
 10
11.85185263875976
 20
-11.92396203760856
 30
0.0
  0
VERTEX
  5
1B3
330
19D
100
AcDbEntity
  8
Layer 1
 62
     7
420
 16777215
370
    30
100
AcDbVertex
100
AcDb2dVertex
 10
11.845981896056
 20
-12.47948658875137
 30
0.0
  0
VERTEX
  5
1B4
330
19D
100
AcDbEntity
  8
Layer 1
 62
     7
420
 16777215
370
    30
100
AcDbVertex
100
AcDb2dVertex
 10
11.91257912332031
 20
-12.48019038336361
 30
0.0
  0
VERTEX
  5
1B5
330
19D
100
AcDbEntity
  8
Layer 1
 62
     7
420
 16777215
370
    30
100
AcDbVertex
100
AcDb2dVertex
 10
11.90670838260727
 20
-13.03571474613702
 30
0.0
  0
VERTEX
  5
1B6
330
19D
100
AcDbEntity
  8
Layer 1
 62
     7
420
 16777215
370
    30
100
AcDbVertex
100
AcDb2dVertex
 10
11.84011115534301
 20
-13.03501095152481
 30
0.0
  0
VERTEX
  5
1B7
330
19D
100
AcDbEntity
  8
Layer 1
 62
     7
420
 16777215
370
    30
100
AcDbVertex
100
AcDb2dVertex
 10
11.83424041363464
 20
-13.59053540848294
 30
0.0
  0
VERTEX
  5
1B8
330
19D
100
AcDbEntity
  8
Layer 1
 62
     7
420
 16777215
370
    30
100
AcDbVertex
100
AcDb2dVertex
 10
11.90083764089892
 20
-13.59123920309515
 30
0.0
  0
VERTEX
  5
1B9
330
19D
100
AcDbEntity
  8
Layer 1
 62
     7
420
 16777215
370
    30
100
AcDbVertex
100
AcDb2dVertex
 10
11.89566029383301
 20
-14.08115053971167
 30
0.0
  0
VERTEX
  5
1BA
330
19D
100
AcDbEntity
  8
Layer 1
 62
     7
420
 16777215
370
    30
100
AcDbVertex
100
AcDb2dVertex
 10
11.3318029666431
 20
-14.07519173684202
 30
0.0
  0
VERTEX
  5
1BB
330
19D
100
AcDbEntity
  8
Layer 1
 62
     7
420
 16777215
370
    30
100
AcDbVertex
100
AcDb2dVertex
 10
11.33110957200062
 20
-14.14080485718359
 30
0.0
  0
VERTEX
  5
1BC
330
19D
100
AcDbEntity
  8
Layer 1
 62
     7
420
 16777215
370
    30
100
AcDbVertex
100
AcDb2dVertex
 10
10.76725205361577
 20
-14.13484605229334
 30
0.0
  0
VERTEX
  5
1BD
330
19D
100
AcDbEntity
  8
Layer 1
 62
     7
420
 16777215
370
    30
100
AcDbVertex
100
AcDb2dVertex
 10
10.76794544825826
 20
-14.06923293195177
 30
0.0
  0
VERTEX
  5
1BE
330
19D
100
AcDbEntity
  8
Layer 1
 62
     7
420
 16777215
370
    30
100
AcDbVertex
100
AcDb2dVertex
 10
10.20408812106838
 20
-14.06327412908207
 30
0.0
  0
VERTEX
  5
1BF
330
19D
100
AcDbEntity
  8
Layer 1
 62
     7
420
 16777215
370
    30
100
AcDbVertex
100
AcDb2dVertex
 10
10.20339472642591
 20
-14.12888724942367
 30
0.0
  0
VERTEX
  5
1C0
330
19D
100
AcDbEntity
  8
Layer 1
 62
     7
420
 16777215
370
    30
100
AcDbVertex
100
AcDb2dVertex
 10
9.639537303638537
 20
-14.12292844554369
 30
0.0
  0
VERTEX
  5
1C1
330
19D
100
AcDbEntity
  8
Layer 1
 62
     7
420
 16777215
370
    30
100
AcDbVertex
100
AcDb2dVertex
 10
9.640230698281004
 20
-14.05731532520215
 30
0.0
  0
VERTEX
  5
1C2
330
19D
100
AcDbEntity
  8
Layer 1
 62
     7
420
 16777215
370
    30
100
AcDbVertex
100
AcDb2dVertex
 10
9.076373275493602
 20
-14.05135652132215
 30
0.0
  0
SEQEND
  5
1C3
330
19D
100
AcDbEntity
  8
Layer 1
 62
     7
420
 16777215
370
    30
  0
ENDBLK
  5
19C
330
199
100
AcDbEntity
  8
0
100
AcDbBlockEnd
  0
BLOCK
  5
1C6
330
1C4
100
AcDbEntity
  8
0
100
AcDbBlockBegin
  2
block 9
 70
     0
 10
0.0
 20
0.0
 30
0.0
  3
block 9
  1

  0
POLYLINE
  5
1C8
330
1C4
100
AcDbEntity
  8
Layer 1
 62
     7
420
 16777215
370
    30
100
AcDb2dPolyline
 66
     1
 10
0.0
 20
0.0
 30
0.0
  0
VERTEX
  5
1C9
330
1C8
100
AcDbEntity
  8
Layer 1
 62
     7
420
 16777215
370
    30
100
AcDbVertex
100
AcDb2dVertex
 10
12.71214744483662
 20
-15.39862204498417
 30
0.0
  0
VERTEX
  5
1CA
330
1C8
100
AcDbEntity
  8
Layer 1
 62
     7
420
 16777215
370
    30
100
AcDbVertex
100
AcDb2dVertex
 10
13.59959751864156
 20
-15.39862204498417
 30
0.0
  0
VERTEX
  5
1CB
330
1C8
100
AcDbEntity
  8
Layer 1
 62
     7
420
 16777215
370
    30
100
AcDbVertex
100
AcDb2dVertex
 10
13.59959751864156
 20
-15.33333333333333
 30
0.0
  0
VERTEX
  5
1CC
330
1C8
100
AcDbEntity
  8
Layer 1
 62
     7
420
 16777215
370
    30
100
AcDbVertex
100
AcDb2dVertex
 10
14.57419489407188
 20
-15.33333333333333
 30
0.0
  0
VERTEX
  5
1CD
330
1C8
100
AcDbEntity
  8
Layer 1
 62
     7
420
 16777215
370
    30
100
AcDbVertex
100
AcDb2dVertex
 10
14.57419489407188
 20
-15.39862204498417
 30
0.0
  0
VERTEX
  5
1CE
330
1C8
100
AcDbEntity
  8
Layer 1
 62
     7
420
 16777215
370
    30
100
AcDbVertex
100
AcDb2dVertex
 10
15.24232418828958
 20
-15.39862204498417
 30
0.0
  0
VERTEX
  5
1CF
330
1C8
100
AcDbEntity
  8
Layer 1
 62
     7
420
 16777215
370
    30
100
AcDbVertex
100
AcDb2dVertex
 10
15.24232418828958
 20
-15.33333333333333
 30
0.0
  0
VERTEX
  5
1D0
330
1C8
100
AcDbEntity
  8
Layer 1
 62
     7
420
 16777215
370
    30
100
AcDbVertex
100
AcDb2dVertex
 10
15.91045348250731
 20
-15.33333333333333
 30
0.0
  0
VERTEX
  5
1D1
330
1C8
100
AcDbEntity
  8
Layer 1
 62
     7
420
 16777215
370
    30
100
AcDbVertex
100
AcDb2dVertex
 10
15.91045348250731
 20
-15.39862204498417
 30
0.0
  0
VERTEX
  5
1D2
330
1C8
100
AcDbEntity
  8
Layer 1
 62
     7
420
 16777215
370
    30
100
AcDbVertex
100
AcDb2dVertex
 10
16.57858277672507
 20
-15.39862204498417
 30
0.0
  0
VERTEX
  5
1D3
330
1C8
100
AcDbEntity
  8
Layer 1
 62
     7
420
 16777215
370
    30
100
AcDbVertex
100
AcDb2dVertex
 10
16.57858277672507
 20
-15.33333333333333
 30
0.0
  0
VERTEX
  5
1D4
330
1C8
100
AcDbEntity
  8
Layer 1
 62
     7
420
 16777215
370
    30
100
AcDbVertex
100
AcDb2dVertex
 10
17.55318040234748
 20
-15.33333333333333
 30
0.0
  0
VERTEX
  5
1D5
330
1C8
100
AcDbEntity
  8
Layer 1
 62
     7
420
 16777215
370
    30
100
AcDbVertex
100
AcDb2dVertex
 10
17.55318040234748
 20
-15.39862204498417
 30
0.0
  0
VERTEX
  5
1D6
330
1C8
100
AcDbEntity
  8
Layer 1
 62
     7
420
 16777215
370
    30
100
AcDbVertex
100
AcDb2dVertex
 10
18.44063035887489
 20
-15.39862204498417
 30
0.0
  0
VERTEX
  5
1D7
330
1C8
100
AcDbEntity
  8
Layer 1
 62
     7
420
 16777215
370
    30
100
AcDbVertex
100
AcDb2dVertex
 10
18.44063035887489
 20
-15.88611112985493
 30
0.0
  0
VERTEX
  5
1D8
330
1C8
100
AcDbEntity
  8
Layer 1
 62
     7
420
 16777215
370
    30
100
AcDbVertex
100
AcDb2dVertex
 10
18.52777777777778
 20
-15.88611112985493
 30
0.0
  0
VERTEX
  5
1D9
330
1C8
100
AcDbEntity
  8
Layer 1
 62
     7
420
 16777215
370
    30
100
AcDbVertex
100
AcDb2dVertex
 10
18.52777777777778
 20
-16.43888892637647
 30
0.0
  0
VERTEX
  5
1DA
330
1C8
100
AcDbEntity
  8
Layer 1
 62
     7
420
 16777215
370
    30
100
AcDbVertex
100
AcDb2dVertex
 10
18.44063035887489
 20
-16.43888892637647
 30
0.0
  0
VERTEX
  5
1DB
330
1C8
100
AcDbEntity
  8
Layer 1
 62
     7
420
 16777215
370
    30
100
AcDbVertex
100
AcDb2dVertex
 10
18.44063035887489
 20
-16.99166662917908
 30
0.0
  0
VERTEX
  5
1DC
330
1C8
100
AcDbEntity
  8
Layer 1
 62
     7
420
 16777215
370
    30
100
AcDbVertex
100
AcDb2dVertex
 10
18.52777777777778
 20
-16.99166662917908
 30
0.0
  0
VERTEX
  5
1DD
330
1C8
100
AcDbEntity
  8
Layer 1
 62
     7
420
 16777215
370
    30
100
AcDbVertex
100
AcDb2dVertex
 10
18.52777777777778
 20
-17.54444451941968
 30
0.0
  0
VERTEX
  5
1DE
330
1C8
100
AcDbEntity
  8
Layer 1
 62
     7
420
 16777215
370
    30
100
AcDbVertex
100
AcDb2dVertex
 10
18.44063035887489
 20
-17.54444451941968
 30
0.0
  0
VERTEX
  5
1DF
330
1C8
100
AcDbEntity
  8
Layer 1
 62
     7
420
 16777215
370
    30
100
AcDbVertex
100
AcDb2dVertex
 10
18.44063035887489
 20
-18.03193361014789
 30
0.0
  0
VERTEX
  5
1E0
330
1C8
100
AcDbEntity
  8
Layer 1
 62
     7
420
 16777215
370
    30
100
AcDbVertex
100
AcDb2dVertex
 10
17.55318040234748
 20
-18.03193361014789
 30
0.0
  0
VERTEX
  5
1E1
330
1C8
100
AcDbEntity
  8
Layer 1
 62
     7
420
 16777215
370
    30
100
AcDbVertex
100
AcDb2dVertex
 10
17.55318040234748
 20
-18.09722222222222
 30
0.0
  0
VERTEX
  5
1E2
330
1C8
100
AcDbEntity
  8
Layer 1
 62
     7
420
 16777215
370
    30
100
AcDbVertex
100
AcDb2dVertex
 10
16.57858277672507
 20
-18.09722222222222
 30
0.0
  0
VERTEX
  5
1E3
330
1C8
100
AcDbEntity
  8
Layer 1
 62
     7
420
 16777215
370
    30
100
AcDbVertex
100
AcDb2dVertex
 10
16.57858277672507
 20
-18.03193361014789
 30
0.0
  0
VERTEX
  5
1E4
330
1C8
100
AcDbEntity
  8
Layer 1
 62
     7
420
 16777215
370
    30
100
AcDbVertex
100
AcDb2dVertex
 10
15.91045348250731
 20
-18.03193361014789
 30
0.0
  0
VERTEX
  5
1E5
330
1C8
100
AcDbEntity
  8
Layer 1
 62
     7
420
 16777215
370
    30
100
AcDbVertex
100
AcDb2dVertex
 10
15.91045348250731
 20
-18.09722222222222
 30
0.0
  0
VERTEX
  5
1E6
330
1C8
100
AcDbEntity
  8
Layer 1
 62
     7
420
 16777215
370
    30
100
AcDbVertex
100
AcDb2dVertex
 10
15.24232418828958
 20
-18.09722222222222
 30
0.0
  0
VERTEX
  5
1E7
330
1C8
100
AcDbEntity
  8
Layer 1
 62
     7
420
 16777215
370
    30
100
AcDbVertex
100
AcDb2dVertex
 10
15.24232418828958
 20
-18.03193361014789
 30
0.0
  0
VERTEX
  5
1E8
330
1C8
100
AcDbEntity
  8
Layer 1
 62
     7
420
 16777215
370
    30
100
AcDbVertex
100
AcDb2dVertex
 10
14.57419489407188
 20
-18.03193361014789
 30
0.0
  0
VERTEX
  5
1E9
330
1C8
100
AcDbEntity
  8
Layer 1
 62
     7
420
 16777215
370
    30
100
AcDbVertex
100
AcDb2dVertex
 10
14.57419489407188
 20
-18.09722222222222
 30
0.0
  0
VERTEX
  5
1EA
330
1C8
100
AcDbEntity
  8
Layer 1
 62
     7
420
 16777215
370
    30
100
AcDbVertex
100
AcDb2dVertex
 10
13.59959751864156
 20
-18.09722222222222
 30
0.0
  0
VERTEX
  5
1EB
330
1C8
100
AcDbEntity
  8
Layer 1
 62
     7
420
 16777215
370
    30
100
AcDbVertex
100
AcDb2dVertex
 10
13.59959751864156
 20
-18.03193361014789
 30
0.0
  0
VERTEX
  5
1EC
330
1C8
100
AcDbEntity
  8
Layer 1
 62
     7
420
 16777215
370
    30
100
AcDbVertex
100
AcDb2dVertex
 10
12.71214744483662
 20
-18.03193361014789
 30
0.0
  0
VERTEX
  5
1ED
330
1C8
100
AcDbEntity
  8
Layer 1
 62
     7
420
 16777215
370
    30
100
AcDbVertex
100
AcDb2dVertex
 10
12.71214744483662
 20
-17.54444451941968
 30
0.0
  0
VERTEX
  5
1EE
330
1C8
100
AcDbEntity
  8
Layer 1
 62
     7
420
 16777215
370
    30
100
AcDbVertex
100
AcDb2dVertex
 10
12.62500014321126
 20
-17.54444451941968
 30
0.0
  0
VERTEX
  5
1EF
330
1C8
100
AcDbEntity
  8
Layer 1
 62
     7
420
 16777215
370
    30
100
AcDbVertex
100
AcDb2dVertex
 10
12.62500014321126
 20
-16.99166662917908
 30
0.0
  0
VERTEX
  5
1F0
330
1C8
100
AcDbEntity
  8
Layer 1
 62
     7
420
 16777215
370
    30
100
AcDbVertex
100
AcDb2dVertex
 10
12.71214744483662
 20
-16.99166662917908
 30
0.0
  0
VERTEX
  5
1F1
330
1C8
100
AcDbEntity
  8
Layer 1
 62
     7
420
 16777215
370
    30
100
AcDbVertex
100
AcDb2dVertex
 10
12.71214744483662
 20
-16.43888892637647
 30
0.0
  0
VERTEX
  5
1F2
330
1C8
100
AcDbEntity
  8
Layer 1
 62
     7
420
 16777215
370
    30
100
AcDbVertex
100
AcDb2dVertex
 10
12.62500014321126
 20
-16.43888892637647
 30
0.0
  0
VERTEX
  5
1F3
330
1C8
100
AcDbEntity
  8
Layer 1
 62
     7
420
 16777215
370
    30
100
AcDbVertex
100
AcDb2dVertex
 10
12.62500014321126
 20
-15.88611112985493
 30
0.0
  0
VERTEX
  5
1F4
330
1C8
100
AcDbEntity
  8
Layer 1
 62
     7
420
 16777215
370
    30
100
AcDbVertex
100
AcDb2dVertex
 10
12.71214744483662
 20
-15.88611112985493
 30
0.0
  0
VERTEX
  5
1F5
330
1C8
100
AcDbEntity
  8
Layer 1
 62
     7
420
 16777215
370
    30
100
AcDbVertex
100
AcDb2dVertex
 10
12.71214744483662
 20
-15.39862204498417
 30
0.0
  0
SEQEND
  5
1F6
330
1C8
100
AcDbEntity
  8
Layer 1
 62
     7
420
 16777215
370
    30
  0
ENDBLK
  5
1C7
330
1C4
100
AcDbEntity
  8
0
100
AcDbBlockEnd
  0
BLOCK
  5
1F9
330
1F7
100
AcDbEntity
  8
0
100
AcDbBlockBegin
  2
block 10
 70
     0
 10
0.0
 20
0.0
 30
0.0
  3
block 10
  1

  0
POLYLINE
  5
1FB
330
1F7
100
AcDbEntity
  8
Layer 1
 62
     7
420
 16777215
370
    30
100
AcDb2dPolyline
 66
     1
 10
0.0
 20
0.0
 30
0.0
  0
VERTEX
  5
1FC
330
1FB
100
AcDbEntity
  8
Layer 1
 62
     7
420
 16777215
370
    30
100
AcDbVertex
100
AcDb2dVertex
 10
11.91365304376543
 20
-15.02120578465855
 30
0.0
  0
VERTEX
  5
1FD
330
1FB
100
AcDbEntity
  8
Layer 1
 62
     7
420
 16777215
370
    30
100
AcDbVertex
100
AcDb2dVertex
 10
11.91219544553499
 20
-15.51114230919562
 30
0.0
  0
VERTEX
  5
1FE
330
1FB
100
AcDbEntity
  8
Layer 1
 62
     7
420
 16777215
370
    30
100
AcDbVertex
100
AcDb2dVertex
 10
11.84559469271507
 20
-15.51094416691681
 30
0.0
  0
VERTEX
  5
1FF
330
1FB
100
AcDbEntity
  8
Layer 1
 62
     7
420
 16777215
370
    30
100
AcDbVertex
100
AcDb2dVertex
 10
11.84394188045103
 20
-16.06649718517737
 30
0.0
  0
VERTEX
  5
200
330
1FB
100
AcDbEntity
  8
Layer 1
 62
     7
420
 16777215
370
    30
100
AcDbVertex
100
AcDb2dVertex
 10
11.91054263327093
 20
-16.06669532745622
 30
0.0
  0
VERTEX
  5
201
330
1FB
100
AcDbEntity
  8
Layer 1
 62
     7
420
 16777215
370
    30
100
AcDbVertex
100
AcDb2dVertex
 10
11.90888982128712
 20
-16.62224825152728
 30
0.0
  0
VERTEX
  5
202
330
1FB
100
AcDbEntity
  8
Layer 1
 62
     7
420
 16777215
370
    30
100
AcDbVertex
100
AcDb2dVertex
 10
11.84228906846723
 20
-16.62205010924842
 30
0.0
  0
VERTEX
  5
203
330
1FB
100
AcDbEntity
  8
Layer 1
 62
     7
420
 16777215
370
    30
100
AcDbVertex
100
AcDb2dVertex
 10
11.840636255923
 20
-17.17760322169854
 30
0.0
  0
VERTEX
  5
204
330
1FB
100
AcDbEntity
  8
Layer 1
 62
     7
420
 16777215
370
    30
100
AcDbVertex
100
AcDb2dVertex
 10
11.90723700874287
 20
-17.1778013639774
 30
0.0
  0
VERTEX
  5
205
330
1FB
100
AcDbEntity
  8
Layer 1
 62
     7
420
 16777215
370
    30
100
AcDbVertex
100
AcDb2dVertex
 10
11.90577941049489
 20
-17.6677378944013
 30
0.0
  0
VERTEX
  5
206
330
1FB
100
AcDbEntity
  8
Layer 1
 62
     7
420
 16777215
370
    30
100
AcDbVertex
100
AcDb2dVertex
 10
11.34189299798042
 20
-17.66606028965887
 30
0.0
  0
VERTEX
  5
207
330
1FB
100
AcDbEntity
  8
Layer 1
 62
     7
420
 16777215
370
    30
100
AcDbVertex
100
AcDb2dVertex
 10
11.34169778424459
 20
-17.73167668330593
 30
0.0
  0
VERTEX
  5
208
330
1FB
100
AcDbEntity
  8
Layer 1
 62
     7
420
 16777215
370
    30
100
AcDbVertex
100
AcDb2dVertex
 10
10.77781137173014
 20
-17.72999907856347
 30
0.0
  0
VERTEX
  5
209
330
1FB
100
AcDbEntity
  8
Layer 1
 62
     7
420
 16777215
370
    30
100
AcDbVertex
100
AcDb2dVertex
 10
10.778006585466
 20
-17.66438268491639
 30
0.0
  0
VERTEX
  5
20A
330
1FB
100
AcDbEntity
  8
Layer 1
 62
     7
420
 16777215
370
    30
100
AcDbVertex
100
AcDb2dVertex
 10
10.21412026855392
 20
-17.66270508045836
 30
0.0
  0
VERTEX
  5
20B
330
1FB
100
AcDbEntity
  8
Layer 1
 62
     7
420
 16777215
370
    30
100
AcDbVertex
100
AcDb2dVertex
 10
10.21392505481814
 20
-17.72832147410541
 30
0.0
  0
VERTEX
  5
20C
330
1FB
100
AcDbEntity
  8
Layer 1
 62
     7
420
 16777215
370
    30
100
AcDbVertex
100
AcDb2dVertex
 10
9.650038546701252
 20
-17.72664386907854
 30
0.0
  0
VERTEX
  5
20D
330
1FB
100
AcDbEntity
  8
Layer 1
 62
     7
420
 16777215
370
    30
100
AcDbVertex
100
AcDb2dVertex
 10
9.650233760437079
 20
-17.66102747543144
 30
0.0
  0
VERTEX
  5
20E
330
1FB
100
AcDbEntity
  8
Layer 1
 62
     7
420
 16777215
370
    30
100
AcDbVertex
100
AcDb2dVertex
 10
9.086347443525028
 20
-17.65934987097345
 30
0.0
  0
VERTEX
  5
20F
330
1FB
100
AcDbEntity
  8
Layer 1
 62
     7
420
 16777215
370
    30
100
AcDbVertex
100
AcDb2dVertex
 10
9.087805041772981
 20
-17.1694133405495
 30
0.0
  0
VERTEX
  5
210
330
1FB
100
AcDbEntity
  8
Layer 1
 62
     7
420
 16777215
370
    30
100
AcDbVertex
100
AcDb2dVertex
 10
9.15440569301533
 20
-17.16961148252613
 30
0.0
  0
VERTEX
  5
211
330
1FB
100
AcDbEntity
  8
Layer 1
 62
     7
420
 16777215
370
    30
100
AcDbVertex
100
AcDb2dVertex
 10
9.156058505559612
 20
-16.61405837007601
 30
0.0
  0
VERTEX
  5
212
330
1FB
100
AcDbEntity
  8
Layer 1
 62
     7
420
 16777215
370
    30
100
AcDbVertex
100
AcDb2dVertex
 10
9.089457854317262
 20
-16.61386022809936
 30
0.0
  0
VERTEX
  5
213
330
1FB
100
AcDbEntity
  8
Layer 1
 62
     7
420
 16777215
370
    30
100
AcDbVertex
100
AcDb2dVertex
 10
9.091110666301043
 20
-16.0583073040283
 30
0.0
  0
VERTEX
  5
214
330
1FB
100
AcDbEntity
  8
Layer 1
 62
     7
420
 16777215
370
    30
100
AcDbVertex
100
AcDb2dVertex
 10
9.157711317543392
 20
-16.05850544600495
 30
0.0
  0
VERTEX
  5
215
330
1FB
100
AcDbEntity
  8
Layer 1
 62
     7
420
 16777215
370
    30
100
AcDbVertex
100
AcDb2dVertex
 10
9.159364129807424
 20
-15.50295242774438
 30
0.0
  0
VERTEX
  5
216
330
1FB
100
AcDbEntity
  8
Layer 1
 62
     7
420
 16777215
370
    30
100
AcDbVertex
100
AcDb2dVertex
 10
9.0927634785651
 20
-15.50275428576775
 30
0.0
  0
VERTEX
  5
217
330
1FB
100
AcDbEntity
  8
Layer 1
 62
     7
420
 16777215
370
    30
100
AcDbVertex
100
AcDb2dVertex
 10
9.094221076795545
 20
-15.01281776123068
 30
0.0
  0
VERTEX
  5
218
330
1FB
100
AcDbEntity
  8
Layer 1
 62
     7
420
 16777215
370
    30
100
AcDbVertex
100
AcDb2dVertex
 10
9.658107393707622
 20
-15.01449536568869
 30
0.0
  0
VERTEX
  5
219
330
1FB
100
AcDbEntity
  8
Layer 1
 62
     7
420
 16777215
370
    30
100
AcDbVertex
100
AcDb2dVertex
 10
9.658302607741183
 20
-14.94887887196518
 30
0.0
  0
VERTEX
  5
21A
330
1FB
100
AcDbEntity
  8
Layer 1
 62
     7
420
 16777215
370
    30
100
AcDbVertex
100
AcDb2dVertex
 10
10.22218911585802
 20
-14.95055647699206
 30
0.0
  0
VERTEX
  5
21B
330
1FB
100
AcDbEntity
  8
Layer 1
 62
     7
420
 16777215
370
    30
100
AcDbVertex
100
AcDb2dVertex
 10
10.22199390182446
 20
-15.01617297071559
 30
0.0
  0
VERTEX
  5
21C
330
1FB
100
AcDbEntity
  8
Layer 1
 62
     7
420
 16777215
370
    30
100
AcDbVertex
100
AcDb2dVertex
 10
10.78588021873654
 20
-15.01785057517362
 30
0.0
  0
VERTEX
  5
21D
330
1FB
100
AcDbEntity
  8
Layer 1
 62
     7
420
 16777215
370
    30
100
AcDbVertex
100
AcDb2dVertex
 10
10.78607543277005
 20
-14.95223408145011
 30
0.0
  0
VERTEX
  5
21E
330
1FB
100
AcDbEntity
  8
Layer 1
 62
     7
420
 16777215
370
    30
100
AcDbVertex
100
AcDb2dVertex
 10
11.34996184528452
 20
-14.95391168619257
 30
0.0
  0
VERTEX
  5
21F
330
1FB
100
AcDbEntity
  8
Layer 1
 62
     7
420
 16777215
370
    30
100
AcDbVertex
100
AcDb2dVertex
 10
11.34976663125099
 20
-15.01952817991608
 30
0.0
  0
VERTEX
  5
220
330
1FB
100
AcDbEntity
  8
Layer 1
 62
     7
420
 16777215
370
    30
100
AcDbVertex
100
AcDb2dVertex
 10
11.91365304376543
 20
-15.02120578465855
 30
0.0
  0
SEQEND
  5
221
330
1FB
100
AcDbEntity
  8
Layer 1
 62
     7
420
 16777215
370
    30
  0
ENDBLK
  5
1FA
330
1F7
100
AcDbEntity
  8
0
100
AcDbBlockEnd
  0
BLOCK
  5
224
330
222
100
AcDbEntity
  8
0
100
AcDbBlockBegin
  2
block 11
 70
     0
 10
0.0
 20
0.0
 30
0.0
  3
block 11
  1

  0
SPLINE
  5
226
330
222
100
AcDbEntity
  8
Layer 1
 62
     7
420
 16777215
370
    30
100
AcDbSpline
210
0.0
220
0.0
230
1.0
 70
    11
 71
     3
 72
   221
 73
   217
 74
     0
 42
0.0000000001
 43
0.0000000001
 12
1.0
 22
0.0
 32
0.0
 13
1.0
 23
0.0
 33
0.0
 40
0.0
 40
0.0
 40
0.0
 40
0.0
 40
1.0
 40
1.0
 40
1.0
 40
2.0
 40
2.0
 40
2.0
 40
3.0
 40
3.0
 40
3.0
 40
4.0
 40
4.0
 40
4.0
 40
5.0
 40
5.0
 40
5.0
 40
6.0
 40
6.0
 40
6.0
 40
7.0
 40
7.0
 40
7.0
 40
8.0
 40
8.0
 40
8.0
 40
9.0
 40
9.0
 40
9.0
 40
10.0
 40
10.0
 40
10.0
 40
11.0
 40
11.0
 40
11.0
 40
12.0
 40
12.0
 40
12.0
 40
13.0
 40
13.0
 40
13.0
 40
14.0
 40
14.0
 40
14.0
 40
15.0
 40
15.0
 40
15.0
 40
16.0
 40
16.0
 40
16.0
 40
17.0
 40
17.0
 40
17.0
 40
18.0
 40
18.0
 40
18.0
 40
19.0
 40
19.0
 40
19.0
 40
20.0
 40
20.0
 40
20.0
 40
21.0
 40
21.0
 40
21.0
 40
22.0
 40
22.0
 40
22.0
 40
23.0
 40
23.0
 40
23.0
 40
24.0
 40
24.0
 40
24.0
 40
25.0
 40
25.0
 40
25.0
 40
26.0
 40
26.0
 40
26.0
 40
27.0
 40
27.0
 40
27.0
 40
28.0
 40
28.0
 40
28.0
 40
29.0
 40
29.0
 40
29.0
 40
30.0
 40
30.0
 40
30.0
 40
31.0
 40
31.0
 40
31.0
 40
32.0
 40
32.0
 40
32.0
 40
33.0
 40
33.0
 40
33.0
 40
34.0
 40
34.0
 40
34.0
 40
35.0
 40
35.0
 40
35.0
 40
36.0
 40
36.0
 40
36.0
 40
37.0
 40
37.0
 40
37.0
 40
38.0
 40
38.0
 40
38.0
 40
39.0
 40
39.0
 40
39.0
 40
40.0
 40
40.0
 40
40.0
 40
41.0
 40
41.0
 40
41.0
 40
42.0
 40
42.0
 40
42.0
 40
43.0
 40
43.0
 40
43.0
 40
44.0
 40
44.0
 40
44.0
 40
45.0
 40
45.0
 40
45.0
 40
46.0
 40
46.0
 40
46.0
 40
47.0
 40
47.0
 40
47.0
 40
48.0
 40
48.0
 40
48.0
 40
49.0
 40
49.0
 40
49.0
 40
50.0
 40
50.0
 40
50.0
 40
51.0
 40
51.0
 40
51.0
 40
52.0
 40
52.0
 40
52.0
 40
53.0
 40
53.0
 40
53.0
 40
54.0
 40
54.0
 40
54.0
 40
55.0
 40
55.0
 40
55.0
 40
56.0
 40
56.0
 40
56.0
 40
57.0
 40
57.0
 40
57.0
 40
58.0
 40
58.0
 40
58.0
 40
59.0
 40
59.0
 40
59.0
 40
60.0
 40
60.0
 40
60.0
 40
61.0
 40
61.0
 40
61.0
 40
62.0
 40
62.0
 40
62.0
 40
63.0
 40
63.0
 40
63.0
 40
64.0
 40
64.0
 40
64.0
 40
65.0
 40
65.0
 40
65.0
 40
66.0
 40
66.0
 40
66.0
 40
67.0
 40
67.0
 40
67.0
 40
68.0
 40
68.0
 40
68.0
 40
69.0
 40
69.0
 40
69.0
 40
70.0
 40
70.0
 40
70.0
 40
71.0
 40
71.0
 40
71.0
 40
72.0
 40
72.0
 40
72.0
 40
72.0
 10
18.52676329483107
 20
-12.64444393581814
 30
0.0
 10
18.52732357829149
 20
-12.64444393581814
 30
0.0
 10
18.52777777777778
 20
-12.64398973633186
 30
0.0
 10
18.52777777777778
 20
-12.64342945287144
 30
0.0
 10
18.52777777777778
 20
-12.64342945287144
 30
0.0
 10
18.52777777777778
 20
-12.11111111111111
 30
0.0
 10
18.52777777777778
 20
-12.11111111111111
 30
0.0
 10
18.52777777777778
 20
-12.11111111111111
 30
0.0
 10
18.52083333333333
 20
-11.38194444444444
 30
0.0
 10
18.52083333333333
 20
-11.38194444444444
 30
0.0
 10
18.53553941514757
 20
-11.39493052164713
 30
0.0
 10
18.52083333333333
 20
-11.38194444444444
 30
0.0
 10
18.52083333333333
 20
-11.38194444444444
 30
0.0
 10
18.52083333333333
 20
-11.38194444444444
 30
0.0
 10
17.63194444444444
 20
-11.38194444444444
 30
0.0
 10
17.63194444444444
 20
-11.38194444444444
 30
0.0
 10
17.63194444444444
 20
-11.38194444444444
 30
0.0
 10
17.63194444444444
 20
-11.38194444444444
 30
0.0
 10
17.63194444444444
 20
-11.38194444444444
 30
0.0
 10
17.63194444444444
 20
-11.38194444444444
 30
0.0
 10
16.9375
 20
-11.38194444444444
 30
0.0
 10
16.9375
 20
-11.38194444444444
 30
0.0
 10
16.9375
 20
-11.38194444444444
 30
0.0
 10
15.59027777777778
 20
-11.64583333333333
 30
0.0
 10
15.59027777777778
 20
-11.64583333333333
 30
0.0
 10
15.59027777777778
 20
-11.64583333333333
 30
0.0
 10
14.24305555555556
 20
-11.38194444444444
 30
0.0
 10
14.24305555555556
 20
-11.38194444444444
 30
0.0
 10
14.24305555555556
 20
-11.38194444444444
 30
0.0
 10
12.61805555555556
 20
-11.38194444444444
 30
0.0
 10
12.61805555555556
 20
-11.38194444444444
 30
0.0
 10
12.61704578538926
 20
-11.38194954429378
 30
0.0
 10
12.61823619051933
 20
-11.64682682858097
 30
0.0
 10
12.61805555555556
 20
-11.64583333333333
 30
0.0
 10
12.61805555555556
 20
-11.64583333333333
 30
0.0
 10
12.61805555555556
 20
-11.64583333333333
 30
0.0
 10
12.61805555555556
 20
-11.64583333333333
 30
0.0
 10
12.61805555555556
 20
-11.64583333333333
 30
0.0
 10
12.625
 20
-12.11111111111111
 30
0.0
 10
12.625
 20
-12.11111111111111
 30
0.0
 10
12.625
 20
-12.11111111111111
 30
0.0
 10
12.625
 20
-12.64342945287144
 30
0.0
 10
12.625
 20
-12.64342945287144
 30
0.0
 10
12.625
 20
-12.64398973633186
 30
0.0
 10
12.62545419948628
 20
-12.64444393581814
 30
0.0
 10
12.6260144829467
 20
-12.64444393581814
 30
0.0
 10
12.6260144829467
 20
-12.64444393581814
 30
0.0
 10
12.71113354765225
 20
-12.64444393581814
 30
0.0
 10
12.71113354765225
 20
-12.64444393581814
 30
0.0
 10
12.71169383111267
 20
-12.64444393581814
 30
0.0
 10
12.71214803059896
 20
-12.64489813530443
 30
0.0
 10
12.71214803059896
 20
-12.64545841876485
 30
0.0
 10
12.71214803059896
 20
-12.64545841876485
 30
0.0
 10
12.71214803059896
 20
-13.17676312528897
 30
0.0
 10
12.71214803059896
 20
-13.17676312528897
 30
0.0
 10
12.71214803059896
 20
-13.17732340874939
 30
0.0
 10
12.71169383111267
 20
-13.17777760823568
 30
0.0
 10
12.71113354765225
 20
-13.17777760823568
 30
0.0
 10
12.71113354765225
 20
-13.17777760823568
 30
0.0
 10
12.6260144829467
 20
-13.17777760823568
 30
0.0
 10
12.6260144829467
 20
-13.17777760823568
 30
0.0
 10
12.62545419948628
 20
-13.17777760823568
 30
0.0
 10
12.625
 20
-13.17823180772196
 30
0.0
 10
12.625
 20
-13.17879209118238
 30
0.0
 10
12.625
 20
-13.17879209118238
 30
0.0
 10
12.625
 20
-13.71009679770651
 30
0.0
 10
12.625
 20
-13.71009679770651
 30
0.0
 10
12.625
 20
-13.71065708116693
 30
0.0
 10
12.62545419948628
 20
-13.71111128065321
 30
0.0
 10
12.6260144829467
 20
-13.71111128065321
 30
0.0
 10
12.6260144829467
 20
-13.71111128065321
 30
0.0
 10
12.71113354765225
 20
-13.71111128065321
 30
0.0
 10
12.71113354765225
 20
-13.71111128065321
 30
0.0
 10
12.71169383111267
 20
-13.71111128065321
 30
0.0
 10
12.71214803059896
 20
-13.7115654801395
 30
0.0
 10
12.71214803059896
 20
-13.71212576359992
 30
0.0
 10
12.71214803059896
 20
-13.71212576359992
 30
0.0
 10
12.71214803059896
 20
-14.24342962241354
 30
0.0
 10
12.71214803059896
 20
-14.24342962241354
 30
0.0
 10
12.71214803059896
 20
-14.24398990587396
 30
0.0
 10
12.71169383111267
 20
-14.24444410536024
 30
0.0
 10
12.71113354765225
 20
-14.24444410536024
 30
0.0
 10
12.71113354765225
 20
-14.24444410536024
 30
0.0
 10
12.6260144829467
 20
-14.24444410536024
 30
0.0
 10
12.6260144829467
 20
-14.24444410536024
 30
0.0
 10
12.62545419948628
 20
-14.24444410536024
 30
0.0
 10
12.625
 20
-14.24489830484653
 30
0.0
 10
12.625
 20
-14.24545858830695
 30
0.0
 10
12.625
 20
-14.24545858830695
 30
0.0
 10
12.625
 20
-14.77676329483107
 30
0.0
 10
12.625
 20
-14.77676329483107
 30
0.0
 10
12.625
 20
-14.77732357829149
 30
0.0
 10
12.62545419948628
 20
-14.77777777777778
 30
0.0
 10
12.6260144829467
 20
-14.77777777777778
 30
0.0
 10
12.6260144829467
 20
-14.77777777777778
 30
0.0
 10
13.59858132868524
 20
-14.77777777777778
 30
0.0
 10
13.59858132868524
 20
-14.77777777777778
 30
0.0
 10
13.59914161214566
 20
-14.77777777777778
 30
0.0
 10
13.59959581163194
 20
-14.77732357829149
 30
0.0
 10
13.59959581163194
 20
-14.77676329483107
 30
0.0
 10
13.59959581163194
 20
-14.77676329483107
 30
0.0
 10
13.59959581163194
 20
-14.71579974092197
 30
0.0
 10
13.59959581163194
 20
-14.71579974092197
 30
0.0
 10
13.59959581163194
 20
-14.71523945746167
 30
0.0
 10
13.60005001111813
 20
-14.71478525797551
 30
0.0
 10
13.60061029457842
 20
-14.71478525797551
 30
0.0
 10
13.60061029457842
 20
-14.71478525797551
 30
0.0
 10
14.57318053115922
 20
-14.71478525797526
 30
0.0
 10
14.57318053115922
 20
-14.71478525797526
 30
0.0
 10
14.57374081461962
 20
-14.71478525797526
 30
0.0
 10
14.5741950141059
 20
-14.71523945746154
 30
0.0
 10
14.5741950141059
 20
-14.71579974092194
 30
0.0
 10
14.5741950141059
 20
-14.71579974092194
 30
0.0
 10
14.5741950141059
 20
-14.77676329483107
 30
0.0
 10
14.5741950141059
 20
-14.77676329483107
 30
0.0
 10
14.5741950141059
 20
-14.77732357829137
 30
0.0
 10
14.57464921359209
 20
-14.77777777777752
 30
0.0
 10
14.57520949705238
 20
-14.77777777777752
 30
0.0
 10
14.57520949705238
 20
-14.77777777777752
 30
0.0
 10
15.24130865073387
 20
-14.77777777777778
 30
0.0
 10
15.24130865073387
 20
-14.77777777777778
 30
0.0
 10
15.24186893419427
 20
-14.77777777777778
 30
0.0
 10
15.24232313368056
 20
-14.77732357829152
 30
0.0
 10
15.24232313368056
 20
-14.7767632948311
 30
0.0
 10
15.24232313368056
 20
-14.7767632948311
 30
0.0
 10
15.24232313368056
 20
-14.71579974092197
 30
0.0
 10
15.24232313368056
 20
-14.71579974092197
 30
0.0
 10
15.24232313368056
 20
-14.71523945746167
 30
0.0
 10
15.24277733316674
 20
-14.71478525797551
 30
0.0
 10
15.24333761662703
 20
-14.71478525797551
 30
0.0
 10
15.24333761662703
 20
-14.71478525797551
 30
0.0
 10
15.90944016115054
 20
-14.71478525797526
 30
0.0
 10
15.90944016115054
 20
-14.71478525797526
 30
0.0
 10
15.91000044461094
 20
-14.71478525797526
 30
0.0
 10
15.91045464409722
 20
-14.71523945746152
 30
0.0
 10
15.91045464409722
 20
-14.71579974092194
 30
0.0
 10
15.91045464409722
 20
-14.71579974092194
 30
0.0
 10
15.91045464409722
 20
-14.77676329483105
 30
0.0
 10
15.91045464409722
 20
-14.77676329483105
 30
0.0
 10
15.91045464409722
 20
-14.77732357829137
 30
0.0
 10
15.9109088435834
 20
-14.77777777777752
 30
0.0
 10
15.9114691270437
 20
-14.77777777777752
 30
0.0
 10
15.9114691270437
 20
-14.77777777777752
 30
0.0
 10
16.5775682807252
 20
-14.77777777777778
 30
0.0
 10
16.5775682807252
 20
-14.77777777777778
 30
0.0
 10
16.57812856418559
 20
-14.77777777777778
 30
0.0
 10
16.57858276367188
 20
-14.77732357829152
 30
0.0
 10
16.57858276367188
 20
-14.7767632948311
 30
0.0
 10
16.57858276367188
 20
-14.7767632948311
 30
0.0
 10
16.57858276367188
 20
-14.71579974092197
 30
0.0
 10
16.57858276367188
 20
-14.71579974092197
 30
0.0
 10
16.57858276367188
 20
-14.71523945746167
 30
0.0
 10
16.57903696315806
 20
-14.71478525797551
 30
0.0
 10
16.57959724661835
 20
-14.71478525797551
 30
0.0
 10
16.57959724661835
 20
-14.71478525797551
 30
0.0
 10
17.55216748319915
 20
-14.71478525797526
 30
0.0
 10
17.55216748319915
 20
-14.71478525797526
 30
0.0
 10
17.55272776665955
 20
-14.71478525797526
 30
0.0
 10
17.55318196614583
 20
-14.71523945746154
 30
0.0
 10
17.55318196614583
 20
-14.71579974092194
 30
0.0
 10
17.55318196614583
 20
-14.71579974092194
 30
0.0
 10
17.55318196614583
 20
-14.77676329483105
 30
0.0
 10
17.55318196614583
 20
-14.77676329483105
 30
0.0
 10
17.55318196614583
 20
-14.77732357829137
 30
0.0
 10
17.55363616563202
 20
-14.77777777777752
 30
0.0
 10
17.55419644909231
 20
-14.77777777777752
 30
0.0
 10
17.55419644909231
 20
-14.77777777777752
 30
0.0
 10
18.52676329483107
 20
-14.77777777777778
 30
0.0
 10
18.52676329483107
 20
-14.77777777777778
 30
0.0
 10
18.52732357829149
 20
-14.77777777777778
 30
0.0
 10
18.52777777777778
 20
-14.77732357829149
 30
0.0
 10
18.52777777777778
 20
-14.77676329483107
 30
0.0
 10
18.52777777777778
 20
-14.77676329483107
 30
0.0
 10
18.52777777777778
 20
-14.24545858830695
 30
0.0
 10
18.52777777777778
 20
-14.24545858830695
 30
0.0
 10
18.52777777777778
 20
-14.24489830484653
 30
0.0
 10
18.52732357829149
 20
-14.24444410536024
 30
0.0
 10
18.52676329483107
 20
-14.24444410536024
 30
0.0
 10
18.52676329483107
 20
-14.24444410536024
 30
0.0
 10
18.44164423012552
 20
-14.24444410536024
 30
0.0
 10
18.44164423012552
 20
-14.24444410536024
 30
0.0
 10
18.4410839466651
 20
-14.24444410536024
 30
0.0
 10
18.44062974717882
 20
-14.24398990587396
 30
0.0
 10
18.44062974717882
 20
-14.24342962241354
 30
0.0
 10
18.44062974717882
 20
-14.24342962241354
 30
0.0
 10
18.44062974717882
 20
-13.71212576359992
 30
0.0
 10
18.44062974717882
 20
-13.71212576359992
 30
0.0
 10
18.44062974717882
 20
-13.7115654801395
 30
0.0
 10
18.4410839466651
 20
-13.71111128065321
 30
0.0
 10
18.44164423012552
 20
-13.71111128065321
 30
0.0
 10
18.44164423012552
 20
-13.71111128065321
 30
0.0
 10
18.52676329483107
 20
-13.71111128065321
 30
0.0
 10
18.52676329483107
 20
-13.71111128065321
 30
0.0
 10
18.52732357829149
 20
-13.71111128065321
 30
0.0
 10
18.52777777777778
 20
-13.71065708116693
 30
0.0
 10
18.52777777777778
 20
-13.71009679770651
 30
0.0
 10
18.52777777777778
 20
-13.71009679770651
 30
0.0
 10
18.52777777777778
 20
-13.17879209118238
 30
0.0
 10
18.52777777777778
 20
-13.17879209118238
 30
0.0
 10
18.52777777777778
 20
-13.17823180772196
 30
0.0
 10
18.52732357829149
 20
-13.17777760823568
 30
0.0
 10
18.52676329483107
 20
-13.17777760823568
 30
0.0
 10
18.52676329483107
 20
-13.17777760823568
 30
0.0
 10
18.44164423012552
 20
-13.17777760823568
 30
0.0
 10
18.44164423012552
 20
-13.17777760823568
 30
0.0
 10
18.4410839466651
 20
-13.17777760823568
 30
0.0
 10
18.44062974717882
 20
-13.17732340874939
 30
0.0
 10
18.44062974717882
 20
-13.17676312528897
 30
0.0
 10
18.44062974717882
 20
-13.17676312528897
 30
0.0
 10
18.44062974717882
 20
-12.64545841876485
 30
0.0
 10
18.44062974717882
 20
-12.64545841876485
 30
0.0
 10
18.44062974717882
 20
-12.64489813530443
 30
0.0
 10
18.4410839466651
 20
-12.64444393581814
 30
0.0
 10
18.44164423012552
 20
-12.64444393581814
 30
0.0
 10
18.44164423012552
 20
-12.64444393581814
 30
0.0
 10
18.52676329483107
 20
-12.64444393581814
 30
0.0
 10
18.52676329483107
 20
-12.64444393581814
 30
0.0
  0
ENDBLK
  5
225
330
222
100
AcDbEntity
  8
0
100
AcDbBlockEnd
  0
BLOCK
  5
22B
330
229
100
AcDbEntity
  8
0
100
AcDbBlockBegin
  2
block 12
 70
     0
 10
0.0
 20
0.0
 30
0.0
  3
block 12
  1

  0
SPLINE
  5
22D
330
229
100
AcDbEntity
  8
Layer 1
 62
     7
420
 16777215
370
    60
100
AcDbSpline
210
0.0
220
0.0
230
1.0
 70
     8
 71
     3
 72
    80
 73
    76
 74
     0
 42
0.0000000001
 43
0.0000000001
 12
1.0
 22
0.0
 32
0.0
 13
1.0
 23
0.0
 33
0.0
 40
0.0
 40
0.0
 40
0.0
 40
0.0
 40
1.0
 40
1.0
 40
1.0
 40
2.0
 40
2.0
 40
2.0
 40
3.0
 40
3.0
 40
3.0
 40
4.0
 40
4.0
 40
4.0
 40
5.0
 40
5.0
 40
5.0
 40
6.0
 40
6.0
 40
6.0
 40
7.0
 40
7.0
 40
7.0
 40
8.0
 40
8.0
 40
8.0
 40
9.0
 40
9.0
 40
9.0
 40
10.0
 40
10.0
 40
10.0
 40
11.0
 40
11.0
 40
11.0
 40
12.0
 40
12.0
 40
12.0
 40
13.0
 40
13.0
 40
13.0
 40
14.0
 40
14.0
 40
14.0
 40
15.0
 40
15.0
 40
15.0
 40
16.0
 40
16.0
 40
16.0
 40
17.0
 40
17.0
 40
17.0
 40
18.0
 40
18.0
 40
18.0
 40
19.0
 40
19.0
 40
19.0
 40
20.0
 40
20.0
 40
20.0
 40
21.0
 40
21.0
 40
21.0
 40
22.0
 40
22.0
 40
22.0
 40
23.0
 40
23.0
 40
23.0
 40
24.0
 40
24.0
 40
24.0
 40
25.0
 40
25.0
 40
25.0
 40
25.0
 10
13.6737067590751
 20
-13.18471952523684
 30
0.0
 10
13.67428113810135
 20
-13.1870815611905
 30
0.0
 10
13.67491315226061
 20
-13.18937801979756
 30
0.0
 10
13.67560258240802
 20
-13.19167460355223
 30
0.0
 10
13.67726852264349
 20
-13.19738296139657
 30
0.0
 10
13.67916434597641
 20
-13.20289446205351
 30
0.0
 10
13.68111758529744
 20
-13.20834038536385
 30
0.0
 10
13.68416238582773
 20
-13.21673891619005
 30
0.0
 10
13.68755168228677
 20
-13.22487501248224
 30
0.0
 10
13.69105602986696
 20
-13.23281412643946
 30
0.0
 10
13.69576677063272
 20
-13.24337783603192
 30
0.0
 10
13.70087964246027
 20
-13.25348237905059
 30
0.0
 10
13.70627959422844
 20
-13.26319308254683
 30
0.0
 10
13.71300099030332
 20
-13.27526594714431
 30
0.0
 10
13.72012451744005
 20
-13.2867482401796
 30
0.0
 10
13.72759254050546
 20
-13.29764008680028
 30
0.0
 10
13.73655425584199
 20
-13.31069711218722
 30
0.0
 10
13.74597573737348
 20
-13.32290125662553
 30
0.0
 10
13.75579934996676
 20
-13.33431797231421
 30
0.0
 10
13.76734631878361
 20
-13.34770313472935
 30
0.0
 10
13.77935283465045
 20
-13.36003843386086
 30
0.0
 10
13.79176148157909
 20
-13.37138957220294
 30
0.0
 10
13.80618078381687
 20
-13.38451230008412
 30
0.0
 10
13.82105963310462
 20
-13.39632260499997
 30
0.0
 10
13.83628341661107
 20
-13.40695201708665
 30
0.0
 10
13.8538623513554
 20
-13.41922173887158
 30
0.0
 10
13.87190083314966
 20
-13.42985115095826
 30
0.0
 10
13.8901691980414
 20
-13.43910256273307
 30
0.0
 10
13.911252480366
 20
-13.44979755216632
 30
0.0
 10
13.93268047776425
 20
-13.45865537471395
 30
0.0
 10
13.95428072312694
 20
-13.46606961960315
 30
0.0
 10
13.9790980169842
 20
-13.47453372777596
 30
0.0
 10
14.00420260992706
 20
-13.48102951436994
 30
0.0
 10
14.02942203484619
 20
-13.48588486611806
 30
0.0
 10
14.05831805530991
 20
-13.49146194412161
 30
0.0
 10
14.08732912689483
 20
-13.49493954585306
 30
0.0
 10
14.11639761446789
 20
-13.49677658759113
 30
0.0
 10
14.14971729575675
 20
-13.49887631415837
 30
0.0
 10
14.18280687480316
 20
-13.49815446275534
 30
0.0
 10
14.21612655609197
 20
-13.49546428977348
 30
0.0
 10
14.24456302950572
 20
-13.49316783116642
 30
0.0
 10
14.27299972206452
 20
-13.48923106286113
 30
0.0
 10
14.30126372836892
 20
-13.48319456798857
 30
0.0
 10
14.32590877426186
 20
-13.47794550186563
 30
0.0
 10
14.35043876903354
 20
-13.47105612604446
 30
0.0
 10
14.37468168386464
 20
-13.46226388084344
 30
0.0
 10
14.39576496618919
 20
-13.45458707627265
 30
0.0
 10
14.41667578140444
 20
-13.44546681919102
 30
0.0
 10
14.43724210069088
 20
-13.43450939522374
 30
0.0
 10
14.45505091853273
 20
-13.42499542376729
 30
0.0
 10
14.47262985327704
 20
-13.41416927964082
 30
0.0
 10
14.48969160583831
 20
-13.40176827801512
 30
0.0
 10
14.50451303913794
 20
-13.39107328858184
 30
0.0
 10
14.5189323413757
 20
-13.37913170382515
 30
0.0
 10
14.53289209656355
 20
-13.36594339859741
 30
0.0
 10
14.54489861243034
 20
-13.35459226025533
 30
0.0
 10
14.55656041322348
 20
-13.34225696112379
 30
0.0
 10
14.56770525097853
 20
-13.32887179870866
 30
0.0
 10
14.57718414849811
 20
-13.31752066036658
 30
0.0
 10
14.58626091495585
 20
-13.30538221842246
 30
0.0
 10
14.59487791521865
 20
-13.29239077038215
 30
0.0
 10
14.60205885834347
 20
-13.28163020360229
 30
0.0
 10
14.60889508639462
 20
-13.27027906526018
 30
0.0
 10
14.6152717673958
 20
-13.2584030578501
 30
0.0
 10
14.62038463922338
 20
-13.24888908639365
 30
0.0
 10
14.62521021196537
 20
-13.23898152571001
 30
0.0
 10
14.6297484856217
 20
-13.22874582799813
 30
0.0
 10
14.63308036609257
 20
-13.22113472592155
 30
0.0
 10
14.63618258261097
 20
-13.21332664150997
 30
0.0
 10
14.63905491603196
 20
-13.20525624771193
 30
0.0
 10
14.64083568824362
 20
-13.20020403877642
 30
0.0
 10
14.64255926361218
 20
-13.19508612734669
 30
0.0
 10
14.64405295588328
 20
-13.18977148387714
 30
0.0
 10
14.64456991892133
 20
-13.18793431699148
 30
0.0
 10
14.64508710110441
 20
-13.18609715010588
 30
0.0
 10
14.64554664815437
 20
-13.18419440587362
 30
0.0
  0
POLYLINE
  5
22E
330
229
100
AcDbEntity
  8
Layer 1
 62
     7
420
 16777215
370
    60
100
AcDb2dPolyline
 66
     1
 10
0.0
 20
0.0
 30
0.0
  0
VERTEX
  5
22F
330
22E
100
AcDbEntity
  8
Layer 1
 62
     7
420
 16777215
370
    60
100
AcDbVertex
100
AcDb2dVertex
 10
14.76388888888889
 20
-13.46416687537092
 30
0.0
  0
VERTEX
  5
230
330
22E
100
AcDbEntity
  8
Layer 1
 62
     7
420
 16777215
370
    60
100
AcDbVertex
100
AcDb2dVertex
 10
14.5990719120913
 20
-13.30971295139781
 30
0.0
  0
SEQEND
  5
231
330
22E
100
AcDbEntity
  8
Layer 1
 62
     7
420
 16777215
370
    60
  0
POLYLINE
  5
232
330
229
100
AcDbEntity
  8
Layer 1
 62
     7
420
 16777215
370
    60
100
AcDb2dPolyline
 66
     1
 10
0.0
 20
0.0
 30
0.0
  0
VERTEX
  5
233
330
232
100
AcDbEntity
  8
Layer 1
 62
     7
420
 16777215
370
    60
100
AcDbVertex
100
AcDb2dVertex
 10
13.66899623745439
 20
-13.18616297774767
 30
0.0
  0
VERTEX
  5
234
330
232
100
AcDbEntity
  8
Layer 1
 62
     7
420
 16777215
370
    60
100
AcDbVertex
100
AcDb2dVertex
 10
13.47976387871636
 20
-13.29816508101592
 30
0.0
  0
SEQEND
  5
235
330
232
100
AcDbEntity
  8
Layer 1
 62
     7
420
 16777215
370
    60
  0
POLYLINE
  5
236
330
229
100
AcDbEntity
  8
Layer 1
 62
     7
420
 16777215
370
    60
100
AcDb2dPolyline
 66
     1
 10
0.0
 20
0.0
 30
0.0
  0
VERTEX
  5
237
330
236
100
AcDbEntity
  8
Layer 1
 62
     7
420
 16777215
370
    60
100
AcDbVertex
100
AcDb2dVertex
 10
13.7309820561095
 20
-13.31798032753083
 30
0.0
  0
VERTEX
  5
238
330
236
100
AcDbEntity
  8
Layer 1
 62
     7
420
 16777215
370
    60
100
AcDbVertex
100
AcDb2dVertex
 10
13.56145433854618
 20
-13.46561045302936
 30
0.0
  0
SEQEND
  5
239
330
236
100
AcDbEntity
  8
Layer 1
 62
     7
420
 16777215
370
    60
  0
POLYLINE
  5
23A
330
229
100
AcDbEntity
  8
Layer 1
 62
     7
420
 16777215
370
    60
100
AcDb2dPolyline
 66
     1
 10
0.0
 20
0.0
 30
0.0
  0
VERTEX
  5
23B
330
23A
100
AcDbEntity
  8
Layer 1
 62
     7
420
 16777215
370
    60
100
AcDbVertex
100
AcDb2dVertex
 10
13.83071099773355
 20
-13.42663610890834
 30
0.0
  0
VERTEX
  5
23C
330
23A
100
AcDbEntity
  8
Layer 1
 62
     7
420
 16777215
370
    60
100
AcDbVertex
100
AcDb2dVertex
 10
13.69835180496807
 20
-13.6175054838614
 30
0.0
  0
SEQEND
  5
23D
330
23A
100
AcDbEntity
  8
Layer 1
 62
     7
420
 16777215
370
    60
  0
POLYLINE
  5
23E
330
229
100
AcDbEntity
  8
Layer 1
 62
     7
420
 16777215
370
    60
100
AcDb2dPolyline
 66
     1
 10
0.0
 20
0.0
 30
0.0
  0
VERTEX
  5
23F
330
23E
100
AcDbEntity
  8
Layer 1
 62
     7
420
 16777215
370
    60
100
AcDbVertex
100
AcDb2dVertex
 10
13.95169546964659
 20
-13.47466500761677
 30
0.0
  0
VERTEX
  5
240
330
23E
100
AcDbEntity
  8
Layer 1
 62
     7
420
 16777215
370
    60
100
AcDbVertex
100
AcDb2dVertex
 10
13.88160939462174
 20
-13.70464000653159
 30
0.0
  0
SEQEND
  5
241
330
23E
100
AcDbEntity
  8
Layer 1
 62
     7
420
 16777215
370
    60
  0
POLYLINE
  5
242
330
229
100
AcDbEntity
  8
Layer 1
 62
     7
420
 16777215
370
    60
100
AcDb2dPolyline
 66
     1
 10
0.0
 20
0.0
 30
0.0
  0
VERTEX
  5
243
330
242
100
AcDbEntity
  8
Layer 1
 62
     7
420
 16777215
370
    60
100
AcDbVertex
100
AcDb2dVertex
 10
14.08755900999232
 20
-13.52157859084256
 30
0.0
  0
VERTEX
  5
244
330
242
100
AcDbEntity
  8
Layer 1
 62
     7
420
 16777215
370
    60
100
AcDbVertex
100
AcDb2dVertex
 10
14.06687785872959
 20
-13.76388888888889
 30
0.0
  0
SEQEND
  5
245
330
242
100
AcDbEntity
  8
Layer 1
 62
     7
420
 16777215
370
    60
  0
POLYLINE
  5
246
330
229
100
AcDbEntity
  8
Layer 1
 62
     7
420
 16777215
370
    60
100
AcDb2dPolyline
 66
     1
 10
0.0
 20
0.0
 30
0.0
  0
VERTEX
  5
247
330
246
100
AcDbEntity
  8
Layer 1
 62
     7
420
 16777215
370
    60
100
AcDbVertex
100
AcDb2dVertex
 10
14.24485032859133
 20
-13.51672336424205
 30
0.0
  0
VERTEX
  5
248
330
246
100
AcDbEntity
  8
Layer 1
 62
     7
420
 16777215
370
    60
100
AcDbVertex
100
AcDb2dVertex
 10
14.26449733463293
 20
-13.75916481698156
 30
0.0
  0
SEQEND
  5
249
330
246
100
AcDbEntity
  8
Layer 1
 62
     7
420
 16777215
370
    60
  0
POLYLINE
  5
24A
330
229
100
AcDbEntity
  8
Layer 1
 62
     7
420
 16777215
370
    60
100
AcDb2dPolyline
 66
     1
 10
0.0
 20
0.0
 30
0.0
  0
VERTEX
  5
24B
330
24A
100
AcDbEntity
  8
Layer 1
 62
     7
420
 16777215
370
    60
100
AcDbVertex
100
AcDb2dVertex
 10
14.37496898295022
 20
-13.48476955063544
 30
0.0
  0
VERTEX
  5
24C
330
24A
100
AcDbEntity
  8
Layer 1
 62
     7
420
 16777215
370
    60
100
AcDbVertex
100
AcDb2dVertex
 10
14.44712312927231
 20
-13.71389141830643
 30
0.0
  0
SEQEND
  5
24D
330
24A
100
AcDbEntity
  8
Layer 1
 62
     7
420
 16777215
370
    60
  0
POLYLINE
  5
24E
330
229
100
AcDbEntity
  8
Layer 1
 62
     7
420
 16777215
370
    60
100
AcDb2dPolyline
 66
     1
 10
0.0
 20
0.0
 30
0.0
  0
VERTEX
  5
24F
330
24E
100
AcDbEntity
  8
Layer 1
 62
     7
420
 16777215
370
    60
100
AcDbVertex
100
AcDb2dVertex
 10
14.50899411595118
 20
-13.41725329214511
 30
0.0
  0
VERTEX
  5
250
330
24E
100
AcDbEntity
  8
Layer 1
 62
     7
420
 16777215
370
    60
100
AcDbVertex
100
AcDb2dVertex
 10
14.61734027698306
 20
-13.62688805032942
 30
0.0
  0
SEQEND
  5
251
330
24E
100
AcDbEntity
  8
Layer 1
 62
     7
420
 16777215
370
    60
  0
ENDBLK
  5
22C
330
229
100
AcDbEntity
  8
0
100
AcDbBlockEnd
  0
BLOCK
  5
254
330
252
100
AcDbEntity
  8
0
100
AcDbBlockBegin
  2
block 13
 70
     0
 10
0.0
 20
0.0
 30
0.0
  3
block 13
  1

  0
SPLINE
  5
256
330
252
100
AcDbEntity
  8
Layer 1
 62
     7
420
 16777215
370
    60
100
AcDbSpline
210
0.0
220
0.0
230
1.0
 70
     8
 71
     3
 72
    80
 73
    76
 74
     0
 42
0.0000000001
 43
0.0000000001
 12
1.0
 22
0.0
 32
0.0
 13
1.0
 23
0.0
 33
0.0
 40
0.0
 40
0.0
 40
0.0
 40
0.0
 40
1.0
 40
1.0
 40
1.0
 40
2.0
 40
2.0
 40
2.0
 40
3.0
 40
3.0
 40
3.0
 40
4.0
 40
4.0
 40
4.0
 40
5.0
 40
5.0
 40
5.0
 40
6.0
 40
6.0
 40
6.0
 40
7.0
 40
7.0
 40
7.0
 40
8.0
 40
8.0
 40
8.0
 40
9.0
 40
9.0
 40
9.0
 40
10.0
 40
10.0
 40
10.0
 40
11.0
 40
11.0
 40
11.0
 40
12.0
 40
12.0
 40
12.0
 40
13.0
 40
13.0
 40
13.0
 40
14.0
 40
14.0
 40
14.0
 40
15.0
 40
15.0
 40
15.0
 40
16.0
 40
16.0
 40
16.0
 40
17.0
 40
17.0
 40
17.0
 40
18.0
 40
18.0
 40
18.0
 40
19.0
 40
19.0
 40
19.0
 40
20.0
 40
20.0
 40
20.0
 40
21.0
 40
21.0
 40
21.0
 40
22.0
 40
22.0
 40
22.0
 40
23.0
 40
23.0
 40
23.0
 40
24.0
 40
24.0
 40
24.0
 40
25.0
 40
25.0
 40
25.0
 40
25.0
 10
16.56259564796399
 20
-13.18471952523684
 30
0.0
 10
16.56317002699024
 20
-13.1870815611905
 30
0.0
 10
16.5638020411495
 20
-13.18937801979756
 30
0.0
 10
16.56449147129691
 20
-13.19167460355223
 30
0.0
 10
16.56615741153238
 20
-13.19738296139657
 30
0.0
 10
16.5680532348653
 20
-13.20289446205351
 30
0.0
 10
16.57000647418633
 20
-13.20834038536385
 30
0.0
 10
16.57305127471662
 20
-13.21673891619005
 30
0.0
 10
16.57644057117566
 20
-13.22487501248224
 30
0.0
 10
16.57994491875585
 20
-13.23281412643946
 30
0.0
 10
16.58465565952161
 20
-13.24337783603192
 30
0.0
 10
16.58976853134916
 20
-13.25348237905059
 30
0.0
 10
16.59516848311733
 20
-13.26319308254683
 30
0.0
 10
16.60188987919221
 20
-13.27526594714431
 30
0.0
 10
16.60901340632894
 20
-13.2867482401796
 30
0.0
 10
16.61648142939435
 20
-13.29764008680028
 30
0.0
 10
16.62544314473088
 20
-13.31069711218722
 30
0.0
 10
16.63486462626237
 20
-13.32290125662553
 30
0.0
 10
16.64468823885565
 20
-13.33431797231421
 30
0.0
 10
16.6562352076725
 20
-13.34770313472935
 30
0.0
 10
16.66824172353934
 20
-13.36003843386086
 30
0.0
 10
16.68065037046798
 20
-13.37138957220294
 30
0.0
 10
16.69506967270576
 20
-13.38451230008412
 30
0.0
 10
16.70994852199351
 20
-13.39632260499997
 30
0.0
 10
16.72517230549996
 20
-13.40695201708665
 30
0.0
 10
16.74275124024429
 20
-13.41922173887158
 30
0.0
 10
16.76078972203855
 20
-13.42985115095826
 30
0.0
 10
16.77905808693029
 20
-13.43910256273307
 30
0.0
 10
16.80014136925489
 20
-13.44979755216632
 30
0.0
 10
16.82156936665314
 20
-13.45865537471395
 30
0.0
 10
16.84316961201582
 20
-13.46606961960315
 30
0.0
 10
16.86798690587309
 20
-13.47453372777596
 30
0.0
 10
16.89309149881595
 20
-13.48102951436994
 30
0.0
 10
16.91831092373508
 20
-13.48588486611806
 30
0.0
 10
16.9472069441988
 20
-13.49146194412161
 30
0.0
 10
16.97621801578372
 20
-13.49493954585306
 30
0.0
 10
17.00528650335678
 20
-13.49677658759113
 30
0.0
 10
17.03860618464564
 20
-13.49887631415837
 30
0.0
 10
17.07169576369206
 20
-13.49815446275534
 30
0.0
 10
17.10501544498086
 20
-13.49546428977348
 30
0.0
 10
17.13345191839461
 20
-13.49316783116642
 30
0.0
 10
17.16188861095341
 20
-13.48923106286113
 30
0.0
 10
17.19015261725781
 20
-13.48319456798857
 30
0.0
 10
17.21479766315075
 20
-13.47794550186563
 30
0.0
 10
17.23932765792243
 20
-13.47105612604446
 30
0.0
 10
17.26357057275353
 20
-13.46226388084344
 30
0.0
 10
17.28465385507808
 20
-13.45458707627265
 30
0.0
 10
17.30556467029333
 20
-13.44546681919102
 30
0.0
 10
17.32613098957977
 20
-13.43450939522374
 30
0.0
 10
17.34393980742162
 20
-13.42499542376729
 30
0.0
 10
17.36151874216592
 20
-13.41416927964082
 30
0.0
 10
17.3785804947272
 20
-13.40176827801512
 30
0.0
 10
17.39340192802683
 20
-13.39107328858184
 30
0.0
 10
17.40782123026459
 20
-13.37913170382515
 30
0.0
 10
17.42178098545244
 20
-13.36594339859741
 30
0.0
 10
17.43378750131923
 20
-13.35459226025533
 30
0.0
 10
17.44544930211237
 20
-13.34225696112379
 30
0.0
 10
17.45659413986742
 20
-13.32887179870866
 30
0.0
 10
17.466073037387
 20
-13.31752066036658
 30
0.0
 10
17.47514980384474
 20
-13.30538221842246
 30
0.0
 10
17.48376680410754
 20
-13.29239077038215
 30
0.0
 10
17.49094774723236
 20
-13.28163020360229
 30
0.0
 10
17.49778397528351
 20
-13.27027906526018
 30
0.0
 10
17.50416065628469
 20
-13.2584030578501
 30
0.0
 10
17.50927352811227
 20
-13.24888908639365
 30
0.0
 10
17.51409910085426
 20
-13.23898152571001
 30
0.0
 10
17.51863737451059
 20
-13.22874582799813
 30
0.0
 10
17.52196925498146
 20
-13.22113472592155
 30
0.0
 10
17.52507147149986
 20
-13.21332664150997
 30
0.0
 10
17.52794380492085
 20
-13.20525624771193
 30
0.0
 10
17.52972457713251
 20
-13.20020403877642
 30
0.0
 10
17.53144815250107
 20
-13.19508612734669
 30
0.0
 10
17.53294184477216
 20
-13.18977148387714
 30
0.0
 10
17.53345880781022
 20
-13.18793431699148
 30
0.0
 10
17.5339759899933
 20
-13.18609715010588
 30
0.0
 10
17.53443553704326
 20
-13.18419440587362
 30
0.0
  0
POLYLINE
  5
257
330
252
100
AcDbEntity
  8
Layer 1
 62
     7
420
 16777215
370
    60
100
AcDb2dPolyline
 66
     1
 10
0.0
 20
0.0
 30
0.0
  0
VERTEX
  5
258
330
257
100
AcDbEntity
  8
Layer 1
 62
     7
420
 16777215
370
    60
100
AcDbVertex
100
AcDb2dVertex
 10
17.65277777777778
 20
-13.46416687537092
 30
0.0
  0
VERTEX
  5
259
330
257
100
AcDbEntity
  8
Layer 1
 62
     7
420
 16777215
370
    60
100
AcDbVertex
100
AcDb2dVertex
 10
17.48796080098019
 20
-13.30971295139781
 30
0.0
  0
SEQEND
  5
25A
330
257
100
AcDbEntity
  8
Layer 1
 62
     7
420
 16777215
370
    60
  0
POLYLINE
  5
25B
330
252
100
AcDbEntity
  8
Layer 1
 62
     7
420
 16777215
370
    60
100
AcDb2dPolyline
 66
     1
 10
0.0
 20
0.0
 30
0.0
  0
VERTEX
  5
25C
330
25B
100
AcDbEntity
  8
Layer 1
 62
     7
420
 16777215
370
    60
100
AcDbVertex
100
AcDb2dVertex
 10
16.55788512634328
 20
-13.18616297774767
 30
0.0
  0
VERTEX
  5
25D
330
25B
100
AcDbEntity
  8
Layer 1
 62
     7
420
 16777215
370
    60
100
AcDbVertex
100
AcDb2dVertex
 10
16.36865276760525
 20
-13.29816508101592
 30
0.0
  0
SEQEND
  5
25E
330
25B
100
AcDbEntity
  8
Layer 1
 62
     7
420
 16777215
370
    60
  0
POLYLINE
  5
25F
330
252
100
AcDbEntity
  8
Layer 1
 62
     7
420
 16777215
370
    60
100
AcDb2dPolyline
 66
     1
 10
0.0
 20
0.0
 30
0.0
  0
VERTEX
  5
260
330
25F
100
AcDbEntity
  8
Layer 1
 62
     7
420
 16777215
370
    60
100
AcDbVertex
100
AcDb2dVertex
 10
16.61987094499839
 20
-13.31798032753083
 30
0.0
  0
VERTEX
  5
261
330
25F
100
AcDbEntity
  8
Layer 1
 62
     7
420
 16777215
370
    60
100
AcDbVertex
100
AcDb2dVertex
 10
16.45034322743507
 20
-13.46561045302936
 30
0.0
  0
SEQEND
  5
262
330
25F
100
AcDbEntity
  8
Layer 1
 62
     7
420
 16777215
370
    60
  0
POLYLINE
  5
263
330
252
100
AcDbEntity
  8
Layer 1
 62
     7
420
 16777215
370
    60
100
AcDb2dPolyline
 66
     1
 10
0.0
 20
0.0
 30
0.0
  0
VERTEX
  5
264
330
263
100
AcDbEntity
  8
Layer 1
 62
     7
420
 16777215
370
    60
100
AcDbVertex
100
AcDb2dVertex
 10
16.71959988662244
 20
-13.42663610890834
 30
0.0
  0
VERTEX
  5
265
330
263
100
AcDbEntity
  8
Layer 1
 62
     7
420
 16777215
370
    60
100
AcDbVertex
100
AcDb2dVertex
 10
16.58724069385696
 20
-13.6175054838614
 30
0.0
  0
SEQEND
  5
266
330
263
100
AcDbEntity
  8
Layer 1
 62
     7
420
 16777215
370
    60
  0
POLYLINE
  5
267
330
252
100
AcDbEntity
  8
Layer 1
 62
     7
420
 16777215
370
    60
100
AcDb2dPolyline
 66
     1
 10
0.0
 20
0.0
 30
0.0
  0
VERTEX
  5
268
330
267
100
AcDbEntity
  8
Layer 1
 62
     7
420
 16777215
370
    60
100
AcDbVertex
100
AcDb2dVertex
 10
16.84058435853548
 20
-13.47466500761677
 30
0.0
  0
VERTEX
  5
269
330
267
100
AcDbEntity
  8
Layer 1
 62
     7
420
 16777215
370
    60
100
AcDbVertex
100
AcDb2dVertex
 10
16.77049828351063
 20
-13.70464000653159
 30
0.0
  0
SEQEND
  5
26A
330
267
100
AcDbEntity
  8
Layer 1
 62
     7
420
 16777215
370
    60
  0
POLYLINE
  5
26B
330
252
100
AcDbEntity
  8
Layer 1
 62
     7
420
 16777215
370
    60
100
AcDb2dPolyline
 66
     1
 10
0.0
 20
0.0
 30
0.0
  0
VERTEX
  5
26C
330
26B
100
AcDbEntity
  8
Layer 1
 62
     7
420
 16777215
370
    60
100
AcDbVertex
100
AcDb2dVertex
 10
16.97644789888121
 20
-13.52157859084256
 30
0.0
  0
VERTEX
  5
26D
330
26B
100
AcDbEntity
  8
Layer 1
 62
     7
420
 16777215
370
    60
100
AcDbVertex
100
AcDb2dVertex
 10
16.95576674761848
 20
-13.76388888888889
 30
0.0
  0
SEQEND
  5
26E
330
26B
100
AcDbEntity
  8
Layer 1
 62
     7
420
 16777215
370
    60
  0
POLYLINE
  5
26F
330
252
100
AcDbEntity
  8
Layer 1
 62
     7
420
 16777215
370
    60
100
AcDb2dPolyline
 66
     1
 10
0.0
 20
0.0
 30
0.0
  0
VERTEX
  5
270
330
26F
100
AcDbEntity
  8
Layer 1
 62
     7
420
 16777215
370
    60
100
AcDbVertex
100
AcDb2dVertex
 10
17.13373921748022
 20
-13.51672336424205
 30
0.0
  0
VERTEX
  5
271
330
26F
100
AcDbEntity
  8
Layer 1
 62
     7
420
 16777215
370
    60
100
AcDbVertex
100
AcDb2dVertex
 10
17.15338622352182
 20
-13.75916481698156
 30
0.0
  0
SEQEND
  5
272
330
26F
100
AcDbEntity
  8
Layer 1
 62
     7
420
 16777215
370
    60
  0
POLYLINE
  5
273
330
252
100
AcDbEntity
  8
Layer 1
 62
     7
420
 16777215
370
    60
100
AcDb2dPolyline
 66
     1
 10
0.0
 20
0.0
 30
0.0
  0
VERTEX
  5
274
330
273
100
AcDbEntity
  8
Layer 1
 62
     7
420
 16777215
370
    60
100
AcDbVertex
100
AcDb2dVertex
 10
17.26385787183911
 20
-13.48476955063544
 30
0.0
  0
VERTEX
  5
275
330
273
100
AcDbEntity
  8
Layer 1
 62
     7
420
 16777215
370
    60
100
AcDbVertex
100
AcDb2dVertex
 10
17.3360120181612
 20
-13.71389141830643
 30
0.0
  0
SEQEND
  5
276
330
273
100
AcDbEntity
  8
Layer 1
 62
     7
420
 16777215
370
    60
  0
POLYLINE
  5
277
330
252
100
AcDbEntity
  8
Layer 1
 62
     7
420
 16777215
370
    60
100
AcDb2dPolyline
 66
     1
 10
0.0
 20
0.0
 30
0.0
  0
VERTEX
  5
278
330
277
100
AcDbEntity
  8
Layer 1
 62
     7
420
 16777215
370
    60
100
AcDbVertex
100
AcDb2dVertex
 10
17.39788300484007
 20
-13.41725329214511
 30
0.0
  0
VERTEX
  5
279
330
277
100
AcDbEntity
  8
Layer 1
 62
     7
420
 16777215
370
    60
100
AcDbVertex
100
AcDb2dVertex
 10
17.50622916587195
 20
-13.62688805032942
 30
0.0
  0
SEQEND
  5
27A
330
277
100
AcDbEntity
  8
Layer 1
 62
     7
420
 16777215
370
    60
  0
ENDBLK
  5
255
330
252
100
AcDbEntity
  8
0
100
AcDbBlockEnd
  0
BLOCK
  5
27D
330
27B
100
AcDbEntity
  8
0
100
AcDbBlockBegin
  2
block 14
 70
     0
 10
0.0
 20
0.0
 30
0.0
  3
block 14
  1

  0
POLYLINE
  5
27F
330
27B
100
AcDbEntity
  8
Layer 1
 62
     7
420
 16777215
370
    30
100
AcDb2dPolyline
 66
     1
 10
0.0
 20
0.0
 30
0.0
  0
VERTEX
  5
280
330
27F
100
AcDbEntity
  8
Layer 1
 62
     7
420
 16777215
370
    30
100
AcDbVertex
100
AcDb2dVertex
 10
28.79166667742844
 20
-0.986111121872884
 30
0.0
  0
VERTEX
  5
281
330
27F
100
AcDbEntity
  8
Layer 1
 62
     7
420
 16777215
370
    30
100
AcDbVertex
100
AcDb2dVertex
 10
30.1125328563293
 20
-0.986111121872884
 30
0.0
  0
VERTEX
  5
282
330
27F
100
AcDbEntity
  8
Layer 1
 62
     7
420
 16777215
370
    30
100
AcDbVertex
100
AcDb2dVertex
 10
30.1125328563293
 20
-1.10422135508438
 30
0.0
  0
VERTEX
  5
283
330
27F
100
AcDbEntity
  8
Layer 1
 62
     7
420
 16777215
370
    30
100
AcDbVertex
100
AcDb2dVertex
 10
31.43339903523017
 20
-1.10422135508438
 30
0.0
  0
VERTEX
  5
284
330
27F
100
AcDbEntity
  8
Layer 1
 62
     7
420
 16777215
370
    30
100
AcDbVertex
100
AcDb2dVertex
 10
31.43339903523017
 20
-0.986111121872884
 30
0.0
  0
VERTEX
  5
285
330
27F
100
AcDbEntity
  8
Layer 1
 62
     7
420
 16777215
370
    30
100
AcDbVertex
100
AcDb2dVertex
 10
32.33891079846002
 20
-0.986111121872884
 30
0.0
  0
VERTEX
  5
286
330
27F
100
AcDbEntity
  8
Layer 1
 62
     7
420
 16777215
370
    30
100
AcDbVertex
100
AcDb2dVertex
 10
32.33891079846002
 20
-1.10422135508438
 30
0.0
  0
VERTEX
  5
287
330
27F
100
AcDbEntity
  8
Layer 1
 62
     7
420
 16777215
370
    30
100
AcDbVertex
100
AcDb2dVertex
 10
33.24442256168987
 20
-1.10422135508438
 30
0.0
  0
VERTEX
  5
288
330
27F
100
AcDbEntity
  8
Layer 1
 62
     7
420
 16777215
370
    30
100
AcDbVertex
100
AcDb2dVertex
 10
33.24442256168987
 20
-0.986111121872884
 30
0.0
  0
VERTEX
  5
289
330
27F
100
AcDbEntity
  8
Layer 1
 62
     7
420
 16777215
370
    30
100
AcDbVertex
100
AcDb2dVertex
 10
34.14993432491971
 20
-0.986111121872884
 30
0.0
  0
VERTEX
  5
28A
330
27F
100
AcDbEntity
  8
Layer 1
 62
     7
420
 16777215
370
    30
100
AcDbVertex
100
AcDb2dVertex
 10
34.14993432491971
 20
-1.10422135508438
 30
0.0
  0
VERTEX
  5
28B
330
27F
100
AcDbEntity
  8
Layer 1
 62
     7
420
 16777215
370
    30
100
AcDbVertex
100
AcDb2dVertex
 10
35.47080084290451
 20
-1.10422135508438
 30
0.0
  0
VERTEX
  5
28C
330
27F
100
AcDbEntity
  8
Layer 1
 62
     7
420
 16777215
370
    30
100
AcDbVertex
100
AcDb2dVertex
 10
35.47080084290451
 20
-0.986111121872884
 30
0.0
  0
VERTEX
  5
28D
330
27F
100
AcDbEntity
  8
Layer 1
 62
     7
420
 16777215
370
    30
100
AcDbVertex
100
AcDb2dVertex
 10
36.79166702180537
 20
-0.986111121872884
 30
0.0
  0
VERTEX
  5
28E
330
27F
100
AcDbEntity
  8
Layer 1
 62
     7
420
 16777215
370
    30
100
AcDbVertex
100
AcDb2dVertex
 10
36.79166702180537
 20
-1.986111164920001
 30
0.0
  0
VERTEX
  5
28F
330
27F
100
AcDbEntity
  8
Layer 1
 62
     7
420
 16777215
370
    30
100
AcDbVertex
100
AcDb2dVertex
 10
36.6735566296483
 20
-1.986111164920001
 30
0.0
  0
VERTEX
  5
290
330
27F
100
AcDbEntity
  8
Layer 1
 62
     7
420
 16777215
370
    30
100
AcDbVertex
100
AcDb2dVertex
 10
36.6735566296483
 20
-2.986111207967117
 30
0.0
  0
VERTEX
  5
291
330
27F
100
AcDbEntity
  8
Layer 1
 62
     7
420
 16777215
370
    30
100
AcDbVertex
100
AcDb2dVertex
 10
36.79166702180537
 20
-2.986111207967117
 30
0.0
  0
VERTEX
  5
292
330
27F
100
AcDbEntity
  8
Layer 1
 62
     7
420
 16777215
370
    30
100
AcDbVertex
100
AcDb2dVertex
 10
36.79166702180537
 20
-3.98611108147227
 30
0.0
  0
VERTEX
  5
293
330
27F
100
AcDbEntity
  8
Layer 1
 62
     7
420
 16777215
370
    30
100
AcDbVertex
100
AcDb2dVertex
 10
36.6735566296483
 20
-3.98611108147227
 30
0.0
  0
VERTEX
  5
294
330
27F
100
AcDbEntity
  8
Layer 1
 62
     7
420
 16777215
370
    30
100
AcDbVertex
100
AcDb2dVertex
 10
36.6735566296483
 20
-4.986111294061351
 30
0.0
  0
VERTEX
  5
295
330
27F
100
AcDbEntity
  8
Layer 1
 62
     7
420
 16777215
370
    30
100
AcDbVertex
100
AcDb2dVertex
 10
36.79166702180537
 20
-4.986111294061351
 30
0.0
  0
VERTEX
  5
296
330
27F
100
AcDbEntity
  8
Layer 1
 62
     7
420
 16777215
370
    30
100
AcDbVertex
100
AcDb2dVertex
 10
36.79166702180537
 20
-5.986111167566504
 30
0.0
  0
VERTEX
  5
297
330
27F
100
AcDbEntity
  8
Layer 1
 62
     7
420
 16777215
370
    30
100
AcDbVertex
100
AcDb2dVertex
 10
35.47080084290451
 20
-5.986111167566504
 30
0.0
  0
VERTEX
  5
298
330
27F
100
AcDbEntity
  8
Layer 1
 62
     7
420
 16777215
370
    30
100
AcDbVertex
100
AcDb2dVertex
 10
35.47080084290451
 20
-5.868001114493356
 30
0.0
  0
VERTEX
  5
299
330
27F
100
AcDbEntity
  8
Layer 1
 62
     7
420
 16777215
370
    30
100
AcDbVertex
100
AcDb2dVertex
 10
34.14993432491971
 20
-5.868001114493356
 30
0.0
  0
VERTEX
  5
29A
330
27F
100
AcDbEntity
  8
Layer 1
 62
     7
420
 16777215
370
    30
100
AcDbVertex
100
AcDb2dVertex
 10
34.14993432491971
 20
-5.986111167566504
 30
0.0
  0
VERTEX
  5
29B
330
27F
100
AcDbEntity
  8
Layer 1
 62
     7
420
 16777215
370
    30
100
AcDbVertex
100
AcDb2dVertex
 10
33.24442256168987
 20
-5.986111167566504
 30
0.0
  0
VERTEX
  5
29C
330
27F
100
AcDbEntity
  8
Layer 1
 62
     7
420
 16777215
370
    30
100
AcDbVertex
100
AcDb2dVertex
 10
33.24442256168987
 20
-5.868001114493356
 30
0.0
  0
VERTEX
  5
29D
330
27F
100
AcDbEntity
  8
Layer 1
 62
     7
420
 16777215
370
    30
100
AcDbVertex
100
AcDb2dVertex
 10
32.33891079846002
 20
-5.868001114493356
 30
0.0
  0
VERTEX
  5
29E
330
27F
100
AcDbEntity
  8
Layer 1
 62
     7
420
 16777215
370
    30
100
AcDbVertex
100
AcDb2dVertex
 10
32.33891079846002
 20
-5.986111167566504
 30
0.0
  0
VERTEX
  5
29F
330
27F
100
AcDbEntity
  8
Layer 1
 62
     7
420
 16777215
370
    30
100
AcDbVertex
100
AcDb2dVertex
 10
31.43339903523017
 20
-5.986111167566504
 30
0.0
  0
VERTEX
  5
2A0
330
27F
100
AcDbEntity
  8
Layer 1
 62
     7
420
 16777215
370
    30
100
AcDbVertex
100
AcDb2dVertex
 10
31.43339903523017
 20
-5.868001114493356
 30
0.0
  0
VERTEX
  5
2A1
330
27F
100
AcDbEntity
  8
Layer 1
 62
     7
420
 16777215
370
    30
100
AcDbVertex
100
AcDb2dVertex
 10
30.1125328563293
 20
-5.868001114493356
 30
0.0
  0
VERTEX
  5
2A2
330
27F
100
AcDbEntity
  8
Layer 1
 62
     7
420
 16777215
370
    30
100
AcDbVertex
100
AcDb2dVertex
 10
30.1125328563293
 20
-5.986111167566504
 30
0.0
  0
VERTEX
  5
2A3
330
27F
100
AcDbEntity
  8
Layer 1
 62
     7
420
 16777215
370
    30
100
AcDbVertex
100
AcDb2dVertex
 10
28.79166667742844
 20
-5.986111167566504
 30
0.0
  0
VERTEX
  5
2A4
330
27F
100
AcDbEntity
  8
Layer 1
 62
     7
420
 16777215
370
    30
100
AcDbVertex
100
AcDb2dVertex
 10
28.79166667742844
 20
-4.986111294061351
 30
0.0
  0
VERTEX
  5
2A5
330
27F
100
AcDbEntity
  8
Layer 1
 62
     7
420
 16777215
370
    30
100
AcDbVertex
100
AcDb2dVertex
 10
28.90977691063992
 20
-4.986111294061351
 30
0.0
  0
VERTEX
  5
2A6
330
27F
100
AcDbEntity
  8
Layer 1
 62
     7
420
 16777215
370
    30
100
AcDbVertex
100
AcDb2dVertex
 10
28.90977691063992
 20
-3.98611108147227
 30
0.0
  0
VERTEX
  5
2A7
330
27F
100
AcDbEntity
  8
Layer 1
 62
     7
420
 16777215
370
    30
100
AcDbVertex
100
AcDb2dVertex
 10
28.79166667742844
 20
-3.98611108147227
 30
0.0
  0
VERTEX
  5
2A8
330
27F
100
AcDbEntity
  8
Layer 1
 62
     7
420
 16777215
370
    30
100
AcDbVertex
100
AcDb2dVertex
 10
28.79166667742844
 20
-2.986111207967117
 30
0.0
  0
VERTEX
  5
2A9
330
27F
100
AcDbEntity
  8
Layer 1
 62
     7
420
 16777215
370
    30
100
AcDbVertex
100
AcDb2dVertex
 10
28.90977691063992
 20
-2.986111207967117
 30
0.0
  0
VERTEX
  5
2AA
330
27F
100
AcDbEntity
  8
Layer 1
 62
     7
420
 16777215
370
    30
100
AcDbVertex
100
AcDb2dVertex
 10
28.90977691063992
 20
-1.986111164920001
 30
0.0
  0
VERTEX
  5
2AB
330
27F
100
AcDbEntity
  8
Layer 1
 62
     7
420
 16777215
370
    30
100
AcDbVertex
100
AcDb2dVertex
 10
28.79166667742844
 20
-1.986111164920001
 30
0.0
  0
VERTEX
  5
2AC
330
27F
100
AcDbEntity
  8
Layer 1
 62
     7
420
 16777215
370
    30
100
AcDbVertex
100
AcDb2dVertex
 10
28.79166667742844
 20
-0.986111121872884
 30
0.0
  0
SEQEND
  5
2AD
330
27F
100
AcDbEntity
  8
Layer 1
 62
     7
420
 16777215
370
    30
  0
ENDBLK
  5
27E
330
27B
100
AcDbEntity
  8
0
100
AcDbBlockEnd
  0
BLOCK
  5
2B0
330
2AE
100
AcDbEntity
  8
0
100
AcDbBlockBegin
  2
block 15
 70
     0
 10
0.0
 20
0.0
 30
0.0
  3
block 15
  1

  0
POLYLINE
  5
2B2
330
2AE
100
AcDbEntity
  8
Layer 1
 62
     7
420
 16777215
370
    30
100
AcDb2dPolyline
 66
     1
 10
0.0
 20
0.0
 30
0.0
  0
VERTEX
  5
2B3
330
2B2
100
AcDbEntity
  8
Layer 1
 62
     7
420
 16777215
370
    30
100
AcDbVertex
100
AcDb2dVertex
 10
34.30555569876681
 20
-6.347222232983995
 30
0.0
  0
VERTEX
  5
2B4
330
2B2
100
AcDbEntity
  8
Layer 1
 62
     7
420
 16777215
370
    30
100
AcDbVertex
100
AcDb2dVertex
 10
35.62642187766767
 20
-6.347222232983995
 30
0.0
  0
VERTEX
  5
2B5
330
2B2
100
AcDbEntity
  8
Layer 1
 62
     7
420
 16777215
370
    30
100
AcDbVertex
100
AcDb2dVertex
 10
35.62642187766767
 20
-6.465332466195491
 30
0.0
  0
VERTEX
  5
2B6
330
2B2
100
AcDbEntity
  8
Layer 1
 62
     7
420
 16777215
370
    30
100
AcDbVertex
100
AcDb2dVertex
 10
36.94728805656855
 20
-6.465332466195491
 30
0.0
  0
VERTEX
  5
2B7
330
2B2
100
AcDbEntity
  8
Layer 1
 62
     7
420
 16777215
370
    30
100
AcDbVertex
100
AcDb2dVertex
 10
36.94728805656855
 20
-6.347222232983995
 30
0.0
  0
VERTEX
  5
2B8
330
2B2
100
AcDbEntity
  8
Layer 1
 62
     7
420
 16777215
370
    30
100
AcDbVertex
100
AcDb2dVertex
 10
37.85279981979839
 20
-6.347222232983995
 30
0.0
  0
VERTEX
  5
2B9
330
2B2
100
AcDbEntity
  8
Layer 1
 62
     7
420
 16777215
370
    30
100
AcDbVertex
100
AcDb2dVertex
 10
37.85279981979839
 20
-6.465332466195491
 30
0.0
  0
VERTEX
  5
2BA
330
2B2
100
AcDbEntity
  8
Layer 1
 62
     7
420
 16777215
370
    30
100
AcDbVertex
100
AcDb2dVertex
 10
38.75831158302824
 20
-6.465332466195491
 30
0.0
  0
VERTEX
  5
2BB
330
2B2
100
AcDbEntity
  8
Layer 1
 62
     7
420
 16777215
370
    30
100
AcDbVertex
100
AcDb2dVertex
 10
38.75831158302824
 20
-6.347222232983995
 30
0.0
  0
VERTEX
  5
2BC
330
2B2
100
AcDbEntity
  8
Layer 1
 62
     7
420
 16777215
370
    30
100
AcDbVertex
100
AcDb2dVertex
 10
39.66382334625809
 20
-6.347222232983995
 30
0.0
  0
VERTEX
  5
2BD
330
2B2
100
AcDbEntity
  8
Layer 1
 62
     7
420
 16777215
370
    30
100
AcDbVertex
100
AcDb2dVertex
 10
39.66382334625809
 20
-6.465332466195491
 30
0.0
  0
VERTEX
  5
2BE
330
2B2
100
AcDbEntity
  8
Layer 1
 62
     7
420
 16777215
370
    30
100
AcDbVertex
100
AcDb2dVertex
 10
40.98468986424288
 20
-6.465332466195491
 30
0.0
  0
VERTEX
  5
2BF
330
2B2
100
AcDbEntity
  8
Layer 1
 62
     7
420
 16777215
370
    30
100
AcDbVertex
100
AcDb2dVertex
 10
40.98468986424288
 20
-6.347222232983995
 30
0.0
  0
VERTEX
  5
2C0
330
2B2
100
AcDbEntity
  8
Layer 1
 62
     7
420
 16777215
370
    30
100
AcDbVertex
100
AcDb2dVertex
 10
42.30555604314375
 20
-6.347222232983995
 30
0.0
  0
VERTEX
  5
2C1
330
2B2
100
AcDbEntity
  8
Layer 1
 62
     7
420
 16777215
370
    30
100
AcDbVertex
100
AcDb2dVertex
 10
42.30555604314375
 20
-7.347222276031111
 30
0.0
  0
VERTEX
  5
2C2
330
2B2
100
AcDbEntity
  8
Layer 1
 62
     7
420
 16777215
370
    30
100
AcDbVertex
100
AcDb2dVertex
 10
42.18744565098667
 20
-7.347222276031111
 30
0.0
  0
VERTEX
  5
2C3
330
2B2
100
AcDbEntity
  8
Layer 1
 62
     7
420
 16777215
370
    30
100
AcDbVertex
100
AcDb2dVertex
 10
42.18744565098667
 20
-8.347222319078229
 30
0.0
  0
VERTEX
  5
2C4
330
2B2
100
AcDbEntity
  8
Layer 1
 62
     7
420
 16777215
370
    30
100
AcDbVertex
100
AcDb2dVertex
 10
42.30555604314375
 20
-8.347222319078229
 30
0.0
  0
VERTEX
  5
2C5
330
2B2
100
AcDbEntity
  8
Layer 1
 62
     7
420
 16777215
370
    30
100
AcDbVertex
100
AcDb2dVertex
 10
42.30555604314375
 20
-9.34722219258338
 30
0.0
  0
VERTEX
  5
2C6
330
2B2
100
AcDbEntity
  8
Layer 1
 62
     7
420
 16777215
370
    30
100
AcDbVertex
100
AcDb2dVertex
 10
42.18744565098667
 20
-9.34722219258338
 30
0.0
  0
VERTEX
  5
2C7
330
2B2
100
AcDbEntity
  8
Layer 1
 62
     7
420
 16777215
370
    30
100
AcDbVertex
100
AcDb2dVertex
 10
42.18744565098667
 20
-10.34722240517246
 30
0.0
  0
VERTEX
  5
2C8
330
2B2
100
AcDbEntity
  8
Layer 1
 62
     7
420
 16777215
370
    30
100
AcDbVertex
100
AcDb2dVertex
 10
42.30555604314375
 20
-10.34722240517246
 30
0.0
  0
VERTEX
  5
2C9
330
2B2
100
AcDbEntity
  8
Layer 1
 62
     7
420
 16777215
370
    30
100
AcDbVertex
100
AcDb2dVertex
 10
42.30555604314375
 20
-11.34722227867761
 30
0.0
  0
VERTEX
  5
2CA
330
2B2
100
AcDbEntity
  8
Layer 1
 62
     7
420
 16777215
370
    30
100
AcDbVertex
100
AcDb2dVertex
 10
40.98468986424288
 20
-11.34722227867761
 30
0.0
  0
VERTEX
  5
2CB
330
2B2
100
AcDbEntity
  8
Layer 1
 62
     7
420
 16777215
370
    30
100
AcDbVertex
100
AcDb2dVertex
 10
40.98468986424288
 20
-11.22911222560447
 30
0.0
  0
VERTEX
  5
2CC
330
2B2
100
AcDbEntity
  8
Layer 1
 62
     7
420
 16777215
370
    30
100
AcDbVertex
100
AcDb2dVertex
 10
39.66382334625809
 20
-11.22911222560447
 30
0.0
  0
VERTEX
  5
2CD
330
2B2
100
AcDbEntity
  8
Layer 1
 62
     7
420
 16777215
370
    30
100
AcDbVertex
100
AcDb2dVertex
 10
39.66382334625809
 20
-11.34722227867761
 30
0.0
  0
VERTEX
  5
2CE
330
2B2
100
AcDbEntity
  8
Layer 1
 62
     7
420
 16777215
370
    30
100
AcDbVertex
100
AcDb2dVertex
 10
38.75831158302824
 20
-11.34722227867761
 30
0.0
  0
VERTEX
  5
2CF
330
2B2
100
AcDbEntity
  8
Layer 1
 62
     7
420
 16777215
370
    30
100
AcDbVertex
100
AcDb2dVertex
 10
38.75831158302824
 20
-11.22911222560447
 30
0.0
  0
VERTEX
  5
2D0
330
2B2
100
AcDbEntity
  8
Layer 1
 62
     7
420
 16777215
370
    30
100
AcDbVertex
100
AcDb2dVertex
 10
37.85279981979839
 20
-11.22911222560447
 30
0.0
  0
VERTEX
  5
2D1
330
2B2
100
AcDbEntity
  8
Layer 1
 62
     7
420
 16777215
370
    30
100
AcDbVertex
100
AcDb2dVertex
 10
37.85279981979839
 20
-11.34722227867761
 30
0.0
  0
VERTEX
  5
2D2
330
2B2
100
AcDbEntity
  8
Layer 1
 62
     7
420
 16777215
370
    30
100
AcDbVertex
100
AcDb2dVertex
 10
36.94728805656855
 20
-11.34722227867761
 30
0.0
  0
VERTEX
  5
2D3
330
2B2
100
AcDbEntity
  8
Layer 1
 62
     7
420
 16777215
370
    30
100
AcDbVertex
100
AcDb2dVertex
 10
36.94728805656855
 20
-11.22911222560447
 30
0.0
  0
VERTEX
  5
2D4
330
2B2
100
AcDbEntity
  8
Layer 1
 62
     7
420
 16777215
370
    30
100
AcDbVertex
100
AcDb2dVertex
 10
35.62642187766767
 20
-11.22911222560447
 30
0.0
  0
VERTEX
  5
2D5
330
2B2
100
AcDbEntity
  8
Layer 1
 62
     7
420
 16777215
370
    30
100
AcDbVertex
100
AcDb2dVertex
 10
35.62642187766767
 20
-11.34722227867761
 30
0.0
  0
VERTEX
  5
2D6
330
2B2
100
AcDbEntity
  8
Layer 1
 62
     7
420
 16777215
370
    30
100
AcDbVertex
100
AcDb2dVertex
 10
34.30555569876681
 20
-11.34722227867761
 30
0.0
  0
VERTEX
  5
2D7
330
2B2
100
AcDbEntity
  8
Layer 1
 62
     7
420
 16777215
370
    30
100
AcDbVertex
100
AcDb2dVertex
 10
34.30555569876681
 20
-10.34722240517246
 30
0.0
  0
VERTEX
  5
2D8
330
2B2
100
AcDbEntity
  8
Layer 1
 62
     7
420
 16777215
370
    30
100
AcDbVertex
100
AcDb2dVertex
 10
34.42366593197827
 20
-10.34722240517246
 30
0.0
  0
VERTEX
  5
2D9
330
2B2
100
AcDbEntity
  8
Layer 1
 62
     7
420
 16777215
370
    30
100
AcDbVertex
100
AcDb2dVertex
 10
34.42366593197827
 20
-9.34722219258338
 30
0.0
  0
VERTEX
  5
2DA
330
2B2
100
AcDbEntity
  8
Layer 1
 62
     7
420
 16777215
370
    30
100
AcDbVertex
100
AcDb2dVertex
 10
34.30555569876681
 20
-9.34722219258338
 30
0.0
  0
VERTEX
  5
2DB
330
2B2
100
AcDbEntity
  8
Layer 1
 62
     7
420
 16777215
370
    30
100
AcDbVertex
100
AcDb2dVertex
 10
34.30555569876681
 20
-8.347222319078229
 30
0.0
  0
VERTEX
  5
2DC
330
2B2
100
AcDbEntity
  8
Layer 1
 62
     7
420
 16777215
370
    30
100
AcDbVertex
100
AcDb2dVertex
 10
34.42366593197827
 20
-8.347222319078229
 30
0.0
  0
VERTEX
  5
2DD
330
2B2
100
AcDbEntity
  8
Layer 1
 62
     7
420
 16777215
370
    30
100
AcDbVertex
100
AcDb2dVertex
 10
34.42366593197827
 20
-7.347222276031111
 30
0.0
  0
VERTEX
  5
2DE
330
2B2
100
AcDbEntity
  8
Layer 1
 62
     7
420
 16777215
370
    30
100
AcDbVertex
100
AcDb2dVertex
 10
34.30555569876681
 20
-7.347222276031111
 30
0.0
  0
VERTEX
  5
2DF
330
2B2
100
AcDbEntity
  8
Layer 1
 62
     7
420
 16777215
370
    30
100
AcDbVertex
100
AcDb2dVertex
 10
34.30555569876681
 20
-6.347222232983995
 30
0.0
  0
SEQEND
  5
2E0
330
2B2
100
AcDbEntity
  8
Layer 1
 62
     7
420
 16777215
370
    30
  0
ENDBLK
  5
2B1
330
2AE
100
AcDbEntity
  8
0
100
AcDbBlockEnd
  0
BLOCK
  5
2E3
330
2E1
100
AcDbEntity
  8
0
100
AcDbBlockBegin
  2
block 16
 70
     0
 10
0.0
 20
0.0
 30
0.0
  3
block 16
  1

  0
POLYLINE
  5
2E5
330
2E1
100
AcDbEntity
  8
Layer 1
 62
     7
420
 16777215
370
    30
100
AcDb2dPolyline
 66
     1
 10
0.0
 20
0.0
 30
0.0
  0
VERTEX
  5
2E6
330
2E5
100
AcDbEntity
  8
Layer 1
 62
     7
420
 16777215
370
    30
100
AcDbVertex
100
AcDb2dVertex
 10
28.90977738746634
 20
-6.347222232983995
 30
0.0
  0
VERTEX
  5
2E7
330
2E5
100
AcDbEntity
  8
Layer 1
 62
     7
420
 16777215
370
    30
100
AcDbVertex
100
AcDb2dVertex
 10
29.79166719730198
 20
-6.347222232983995
 30
0.0
  0
VERTEX
  5
2E8
330
2E5
100
AcDbEntity
  8
Layer 1
 62
     7
420
 16777215
370
    30
100
AcDbVertex
100
AcDb2dVertex
 10
29.79166719730198
 20
-6.465332466195491
 30
0.0
  0
VERTEX
  5
2E9
330
2E5
100
AcDbEntity
  8
Layer 1
 62
     7
420
 16777215
370
    30
100
AcDbVertex
100
AcDb2dVertex
 10
30.79166724034909
 20
-6.465332466195491
 30
0.0
  0
VERTEX
  5
2EA
330
2E5
100
AcDbEntity
  8
Layer 1
 62
     7
420
 16777215
370
    30
100
AcDbVertex
100
AcDb2dVertex
 10
30.79166724034909
 20
-6.347222232983995
 30
0.0
  0
VERTEX
  5
2EB
330
2E5
100
AcDbEntity
  8
Layer 1
 62
     7
420
 16777215
370
    30
100
AcDbVertex
100
AcDb2dVertex
 10
31.79166711385425
 20
-6.347222232983995
 30
0.0
  0
VERTEX
  5
2EC
330
2E5
100
AcDbEntity
  8
Layer 1
 62
     7
420
 16777215
370
    30
100
AcDbVertex
100
AcDb2dVertex
 10
31.79166711385425
 20
-6.465332466195491
 30
0.0
  0
VERTEX
  5
2ED
330
2E5
100
AcDbEntity
  8
Layer 1
 62
     7
420
 16777215
370
    30
100
AcDbVertex
100
AcDb2dVertex
 10
32.79166732644332
 20
-6.465332466195491
 30
0.0
  0
VERTEX
  5
2EE
330
2E5
100
AcDbEntity
  8
Layer 1
 62
     7
420
 16777215
370
    30
100
AcDbVertex
100
AcDb2dVertex
 10
32.79166732644332
 20
-6.347222232983995
 30
0.0
  0
VERTEX
  5
2EF
330
2E5
100
AcDbEntity
  8
Layer 1
 62
     7
420
 16777215
370
    30
100
AcDbVertex
100
AcDb2dVertex
 10
33.67355714687533
 20
-6.347222232983995
 30
0.0
  0
VERTEX
  5
2F0
330
2E5
100
AcDbEntity
  8
Layer 1
 62
     7
420
 16777215
370
    30
100
AcDbVertex
100
AcDb2dVertex
 10
33.67355714687533
 20
-7.347222276031111
 30
0.0
  0
VERTEX
  5
2F1
330
2E5
100
AcDbEntity
  8
Layer 1
 62
     7
420
 16777215
370
    30
100
AcDbVertex
100
AcDb2dVertex
 10
33.79166719994848
 20
-7.347222276031111
 30
0.0
  0
VERTEX
  5
2F2
330
2E5
100
AcDbEntity
  8
Layer 1
 62
     7
420
 16777215
370
    30
100
AcDbVertex
100
AcDb2dVertex
 10
33.79166719994848
 20
-8.347222319078229
 30
0.0
  0
VERTEX
  5
2F3
330
2E5
100
AcDbEntity
  8
Layer 1
 62
     7
420
 16777215
370
    30
100
AcDbVertex
100
AcDb2dVertex
 10
33.67355714687533
 20
-8.347222319078229
 30
0.0
  0
VERTEX
  5
2F4
330
2E5
100
AcDbEntity
  8
Layer 1
 62
     7
420
 16777215
370
    30
100
AcDbVertex
100
AcDb2dVertex
 10
33.67355714687533
 20
-9.34722219258338
 30
0.0
  0
VERTEX
  5
2F5
330
2E5
100
AcDbEntity
  8
Layer 1
 62
     7
420
 16777215
370
    30
100
AcDbVertex
100
AcDb2dVertex
 10
33.79166719994848
 20
-9.34722219258338
 30
0.0
  0
VERTEX
  5
2F6
330
2E5
100
AcDbEntity
  8
Layer 1
 62
     7
420
 16777215
370
    30
100
AcDbVertex
100
AcDb2dVertex
 10
33.79166719994848
 20
-10.34722240517246
 30
0.0
  0
VERTEX
  5
2F7
330
2E5
100
AcDbEntity
  8
Layer 1
 62
     7
420
 16777215
370
    30
100
AcDbVertex
100
AcDb2dVertex
 10
33.67355714687533
 20
-10.34722240517246
 30
0.0
  0
VERTEX
  5
2F8
330
2E5
100
AcDbEntity
  8
Layer 1
 62
     7
420
 16777215
370
    30
100
AcDbVertex
100
AcDb2dVertex
 10
33.67355714687533
 20
-11.34722227867761
 30
0.0
  0
VERTEX
  5
2F9
330
2E5
100
AcDbEntity
  8
Layer 1
 62
     7
420
 16777215
370
    30
100
AcDbVertex
100
AcDb2dVertex
 10
32.79166732644332
 20
-11.34722227867761
 30
0.0
  0
VERTEX
  5
2FA
330
2E5
100
AcDbEntity
  8
Layer 1
 62
     7
420
 16777215
370
    30
100
AcDbVertex
100
AcDb2dVertex
 10
32.79166732644332
 20
-11.22911222560447
 30
0.0
  0
VERTEX
  5
2FB
330
2E5
100
AcDbEntity
  8
Layer 1
 62
     7
420
 16777215
370
    30
100
AcDbVertex
100
AcDb2dVertex
 10
31.79166711385425
 20
-11.22911222560447
 30
0.0
  0
VERTEX
  5
2FC
330
2E5
100
AcDbEntity
  8
Layer 1
 62
     7
420
 16777215
370
    30
100
AcDbVertex
100
AcDb2dVertex
 10
31.79166711385425
 20
-11.34722227867761
 30
0.0
  0
VERTEX
  5
2FD
330
2E5
100
AcDbEntity
  8
Layer 1
 62
     7
420
 16777215
370
    30
100
AcDbVertex
100
AcDb2dVertex
 10
30.79166724034909
 20
-11.34722227867761
 30
0.0
  0
VERTEX
  5
2FE
330
2E5
100
AcDbEntity
  8
Layer 1
 62
     7
420
 16777215
370
    30
100
AcDbVertex
100
AcDb2dVertex
 10
30.79166724034909
 20
-11.22911222560447
 30
0.0
  0
VERTEX
  5
2FF
330
2E5
100
AcDbEntity
  8
Layer 1
 62
     7
420
 16777215
370
    30
100
AcDbVertex
100
AcDb2dVertex
 10
29.79166719730198
 20
-11.22911222560447
 30
0.0
  0
VERTEX
  5
300
330
2E5
100
AcDbEntity
  8
Layer 1
 62
     7
420
 16777215
370
    30
100
AcDbVertex
100
AcDb2dVertex
 10
29.79166719730198
 20
-11.34722227867761
 30
0.0
  0
VERTEX
  5
301
330
2E5
100
AcDbEntity
  8
Layer 1
 62
     7
420
 16777215
370
    30
100
AcDbVertex
100
AcDb2dVertex
 10
28.90977738746634
 20
-11.34722227867761
 30
0.0
  0
VERTEX
  5
302
330
2E5
100
AcDbEntity
  8
Layer 1
 62
     7
420
 16777215
370
    30
100
AcDbVertex
100
AcDb2dVertex
 10
28.90977738746634
 20
-10.34722240517246
 30
0.0
  0
VERTEX
  5
303
330
2E5
100
AcDbEntity
  8
Layer 1
 62
     7
420
 16777215
370
    30
100
AcDbVertex
100
AcDb2dVertex
 10
28.79166715425486
 20
-10.34722240517246
 30
0.0
  0
VERTEX
  5
304
330
2E5
100
AcDbEntity
  8
Layer 1
 62
     7
420
 16777215
370
    30
100
AcDbVertex
100
AcDb2dVertex
 10
28.79166715425486
 20
-9.34722219258338
 30
0.0
  0
VERTEX
  5
305
330
2E5
100
AcDbEntity
  8
Layer 1
 62
     7
420
 16777215
370
    30
100
AcDbVertex
100
AcDb2dVertex
 10
28.90977738746634
 20
-9.34722219258338
 30
0.0
  0
VERTEX
  5
306
330
2E5
100
AcDbEntity
  8
Layer 1
 62
     7
420
 16777215
370
    30
100
AcDbVertex
100
AcDb2dVertex
 10
28.90977738746634
 20
-8.347222319078229
 30
0.0
  0
VERTEX
  5
307
330
2E5
100
AcDbEntity
  8
Layer 1
 62
     7
420
 16777215
370
    30
100
AcDbVertex
100
AcDb2dVertex
 10
28.79166715425486
 20
-8.347222319078229
 30
0.0
  0
VERTEX
  5
308
330
2E5
100
AcDbEntity
  8
Layer 1
 62
     7
420
 16777215
370
    30
100
AcDbVertex
100
AcDb2dVertex
 10
28.79166715425486
 20
-7.347222276031111
 30
0.0
  0
VERTEX
  5
309
330
2E5
100
AcDbEntity
  8
Layer 1
 62
     7
420
 16777215
370
    30
100
AcDbVertex
100
AcDb2dVertex
 10
28.90977738746634
 20
-7.347222276031111
 30
0.0
  0
VERTEX
  5
30A
330
2E5
100
AcDbEntity
  8
Layer 1
 62
     7
420
 16777215
370
    30
100
AcDbVertex
100
AcDb2dVertex
 10
28.90977738746634
 20
-6.347222232983995
 30
0.0
  0
SEQEND
  5
30B
330
2E5
100
AcDbEntity
  8
Layer 1
 62
     7
420
 16777215
370
    30
  0
ENDBLK
  5
2E4
330
2E1
100
AcDbEntity
  8
0
100
AcDbBlockEnd
  0
BLOCK
  5
30E
330
30C
100
AcDbEntity
  8
0
100
AcDbBlockBegin
  2
block 17
 70
     0
 10
0.0
 20
0.0
 30
0.0
  3
block 17
  1

  0
POLYLINE
  5
310
330
30C
100
AcDbEntity
  8
Layer 1
 62
     7
420
 16777215
370
    30
100
AcDb2dPolyline
 66
     1
 10
0.0
 20
0.0
 30
0.0
  0
VERTEX
  5
311
330
310
100
AcDbEntity
  8
Layer 1
 62
     7
420
 16777215
370
    30
100
AcDbVertex
100
AcDb2dVertex
 10
42.63199960968856
 20
-6.138889072500761
 30
0.0
  0
VERTEX
  5
312
330
310
100
AcDbEntity
  8
Layer 1
 62
     7
420
 16777215
370
    30
100
AcDbVertex
100
AcDb2dVertex
 10
43.5138894195242
 20
-6.138889072500761
 30
0.0
  0
VERTEX
  5
313
330
310
100
AcDbEntity
  8
Layer 1
 62
     7
420
 16777215
370
    30
100
AcDbVertex
100
AcDb2dVertex
 10
43.5138894195242
 20
-6.256999305712244
 30
0.0
  0
VERTEX
  5
314
330
310
100
AcDbEntity
  8
Layer 1
 62
     7
420
 16777215
370
    30
100
AcDbVertex
100
AcDb2dVertex
 10
44.51388946257131
 20
-6.256999305712244
 30
0.0
  0
VERTEX
  5
315
330
310
100
AcDbEntity
  8
Layer 1
 62
     7
420
 16777215
370
    30
100
AcDbVertex
100
AcDb2dVertex
 10
44.51388946257131
 20
-6.138889072500761
 30
0.0
  0
VERTEX
  5
316
330
310
100
AcDbEntity
  8
Layer 1
 62
     7
420
 16777215
370
    30
100
AcDbVertex
100
AcDb2dVertex
 10
45.51388933607647
 20
-6.138889072500761
 30
0.0
  0
VERTEX
  5
317
330
310
100
AcDbEntity
  8
Layer 1
 62
     7
420
 16777215
370
    30
100
AcDbVertex
100
AcDb2dVertex
 10
45.51388933607647
 20
-6.256999305712244
 30
0.0
  0
VERTEX
  5
318
330
310
100
AcDbEntity
  8
Layer 1
 62
     7
420
 16777215
370
    30
100
AcDbVertex
100
AcDb2dVertex
 10
46.51388954866555
 20
-6.256999305712244
 30
0.0
  0
VERTEX
  5
319
330
310
100
AcDbEntity
  8
Layer 1
 62
     7
420
 16777215
370
    30
100
AcDbVertex
100
AcDb2dVertex
 10
46.51388954866555
 20
-6.138889072500761
 30
0.0
  0
VERTEX
  5
31A
330
310
100
AcDbEntity
  8
Layer 1
 62
     7
420
 16777215
370
    30
100
AcDbVertex
100
AcDb2dVertex
 10
47.39577936909755
 20
-6.138889072500761
 30
0.0
  0
VERTEX
  5
31B
330
310
100
AcDbEntity
  8
Layer 1
 62
     7
420
 16777215
370
    30
100
AcDbVertex
100
AcDb2dVertex
 10
47.39577936909755
 20
-7.138889115547878
 30
0.0
  0
VERTEX
  5
31C
330
310
100
AcDbEntity
  8
Layer 1
 62
     7
420
 16777215
370
    30
100
AcDbVertex
100
AcDb2dVertex
 10
47.5138894221707
 20
-7.138889115547878
 30
0.0
  0
VERTEX
  5
31D
330
310
100
AcDbEntity
  8
Layer 1
 62
     7
420
 16777215
370
    30
100
AcDbVertex
100
AcDb2dVertex
 10
47.5138894221707
 20
-8.138889158594996
 30
0.0
  0
VERTEX
  5
31E
330
310
100
AcDbEntity
  8
Layer 1
 62
     7
420
 16777215
370
    30
100
AcDbVertex
100
AcDb2dVertex
 10
47.39577936909755
 20
-8.138889158594996
 30
0.0
  0
VERTEX
  5
31F
330
310
100
AcDbEntity
  8
Layer 1
 62
     7
420
 16777215
370
    30
100
AcDbVertex
100
AcDb2dVertex
 10
47.39577936909755
 20
-9.138889032100147
 30
0.0
  0
VERTEX
  5
320
330
310
100
AcDbEntity
  8
Layer 1
 62
     7
420
 16777215
370
    30
100
AcDbVertex
100
AcDb2dVertex
 10
47.5138894221707
 20
-9.138889032100147
 30
0.0
  0
VERTEX
  5
321
330
310
100
AcDbEntity
  8
Layer 1
 62
     7
420
 16777215
370
    30
100
AcDbVertex
100
AcDb2dVertex
 10
47.5138894221707
 20
-10.13888924468923
 30
0.0
  0
VERTEX
  5
322
330
310
100
AcDbEntity
  8
Layer 1
 62
     7
420
 16777215
370
    30
100
AcDbVertex
100
AcDb2dVertex
 10
47.39577936909755
 20
-10.13888924468923
 30
0.0
  0
VERTEX
  5
323
330
310
100
AcDbEntity
  8
Layer 1
 62
     7
420
 16777215
370
    30
100
AcDbVertex
100
AcDb2dVertex
 10
47.39577936909755
 20
-11.13888911819438
 30
0.0
  0
VERTEX
  5
324
330
310
100
AcDbEntity
  8
Layer 1
 62
     7
420
 16777215
370
    30
100
AcDbVertex
100
AcDb2dVertex
 10
46.51388954866555
 20
-11.13888911819438
 30
0.0
  0
VERTEX
  5
325
330
310
100
AcDbEntity
  8
Layer 1
 62
     7
420
 16777215
370
    30
100
AcDbVertex
100
AcDb2dVertex
 10
46.51388954866555
 20
-11.02077906512123
 30
0.0
  0
VERTEX
  5
326
330
310
100
AcDbEntity
  8
Layer 1
 62
     7
420
 16777215
370
    30
100
AcDbVertex
100
AcDb2dVertex
 10
45.51388933607647
 20
-11.02077906512123
 30
0.0
  0
VERTEX
  5
327
330
310
100
AcDbEntity
  8
Layer 1
 62
     7
420
 16777215
370
    30
100
AcDbVertex
100
AcDb2dVertex
 10
45.51388933607647
 20
-11.13888911819438
 30
0.0
  0
VERTEX
  5
328
330
310
100
AcDbEntity
  8
Layer 1
 62
     7
420
 16777215
370
    30
100
AcDbVertex
100
AcDb2dVertex
 10
44.51388946257131
 20
-11.13888911819438
 30
0.0
  0
VERTEX
  5
329
330
310
100
AcDbEntity
  8
Layer 1
 62
     7
420
 16777215
370
    30
100
AcDbVertex
100
AcDb2dVertex
 10
44.51388946257131
 20
-11.02077906512123
 30
0.0
  0
VERTEX
  5
32A
330
310
100
AcDbEntity
  8
Layer 1
 62
     7
420
 16777215
370
    30
100
AcDbVertex
100
AcDb2dVertex
 10
43.5138894195242
 20
-11.02077906512123
 30
0.0
  0
VERTEX
  5
32B
330
310
100
AcDbEntity
  8
Layer 1
 62
     7
420
 16777215
370
    30
100
AcDbVertex
100
AcDb2dVertex
 10
43.5138894195242
 20
-11.13888911819438
 30
0.0
  0
VERTEX
  5
32C
330
310
100
AcDbEntity
  8
Layer 1
 62
     7
420
 16777215
370
    30
100
AcDbVertex
100
AcDb2dVertex
 10
42.63199960968856
 20
-11.13888911819438
 30
0.0
  0
VERTEX
  5
32D
330
310
100
AcDbEntity
  8
Layer 1
 62
     7
420
 16777215
370
    30
100
AcDbVertex
100
AcDb2dVertex
 10
42.63199960968856
 20
-10.13888924468923
 30
0.0
  0
VERTEX
  5
32E
330
310
100
AcDbEntity
  8
Layer 1
 62
     7
420
 16777215
370
    30
100
AcDbVertex
100
AcDb2dVertex
 10
42.51388937647708
 20
-10.13888924468923
 30
0.0
  0
VERTEX
  5
32F
330
310
100
AcDbEntity
  8
Layer 1
 62
     7
420
 16777215
370
    30
100
AcDbVertex
100
AcDb2dVertex
 10
42.51388937647708
 20
-9.138889032100147
 30
0.0
  0
VERTEX
  5
330
330
310
100
AcDbEntity
  8
Layer 1
 62
     7
420
 16777215
370
    30
100
AcDbVertex
100
AcDb2dVertex
 10
42.63199960968856
 20
-9.138889032100147
 30
0.0
  0
VERTEX
  5
331
330
310
100
AcDbEntity
  8
Layer 1
 62
     7
420
 16777215
370
    30
100
AcDbVertex
100
AcDb2dVertex
 10
42.63199960968856
 20
-8.138889158594996
 30
0.0
  0
VERTEX
  5
332
330
310
100
AcDbEntity
  8
Layer 1
 62
     7
420
 16777215
370
    30
100
AcDbVertex
100
AcDb2dVertex
 10
42.51388937647708
 20
-8.138889158594996
 30
0.0
  0
VERTEX
  5
333
330
310
100
AcDbEntity
  8
Layer 1
 62
     7
420
 16777215
370
    30
100
AcDbVertex
100
AcDb2dVertex
 10
42.51388937647708
 20
-7.138889115547878
 30
0.0
  0
VERTEX
  5
334
330
310
100
AcDbEntity
  8
Layer 1
 62
     7
420
 16777215
370
    30
100
AcDbVertex
100
AcDb2dVertex
 10
42.63199960968856
 20
-7.138889115547878
 30
0.0
  0
VERTEX
  5
335
330
310
100
AcDbEntity
  8
Layer 1
 62
     7
420
 16777215
370
    30
100
AcDbVertex
100
AcDb2dVertex
 10
42.63199960968856
 20
-6.138889072500761
 30
0.0
  0
SEQEND
  5
336
330
310
100
AcDbEntity
  8
Layer 1
 62
     7
420
 16777215
370
    30
  0
ENDBLK
  5
30F
330
30C
100
AcDbEntity
  8
0
100
AcDbBlockEnd
  0
BLOCK
  5
339
330
337
100
AcDbEntity
  8
0
100
AcDbBlockBegin
  2
block 18
 70
     0
 10
0.0
 20
0.0
 30
0.0
  3
block 18
  1

  0
POLYLINE
  5
33B
330
337
100
AcDbEntity
  8
Layer 1
 62
     7
420
 16777215
370
    30
100
AcDb2dPolyline
 66
     1
 10
0.0
 20
0.0
 30
0.0
  0
VERTEX
  5
33C
330
33B
100
AcDbEntity
  8
Layer 1
 62
     7
420
 16777215
370
    30
100
AcDbVertex
100
AcDb2dVertex
 10
37.13199913286214
 20
-1.104221527934467
 30
0.0
  0
VERTEX
  5
33D
330
33B
100
AcDbEntity
  8
Layer 1
 62
     7
420
 16777215
370
    30
100
AcDbVertex
100
AcDb2dVertex
 10
38.33475507855152
 20
-1.104221527934467
 30
0.0
  0
VERTEX
  5
33E
330
33B
100
AcDbEntity
  8
Layer 1
 62
     7
420
 16777215
370
    30
100
AcDbVertex
100
AcDb2dVertex
 10
38.33475507855152
 20
-0.9861112947229836
 30
0.0
  0
VERTEX
  5
33F
330
33B
100
AcDbEntity
  8
Layer 1
 62
     7
420
 16777215
370
    30
100
AcDbVertex
100
AcDb2dVertex
 10
39.65562125745239
 20
-0.9861112947229836
 30
0.0
  0
VERTEX
  5
340
330
33B
100
AcDbEntity
  8
Layer 1
 62
     7
420
 16777215
370
    30
100
AcDbVertex
100
AcDb2dVertex
 10
39.65562125745239
 20
-1.104221527934467
 30
0.0
  0
VERTEX
  5
341
330
33B
100
AcDbEntity
  8
Layer 1
 62
     7
420
 16777215
370
    30
100
AcDbVertex
100
AcDb2dVertex
 10
40.56113302068224
 20
-1.104221527934467
 30
0.0
  0
VERTEX
  5
342
330
33B
100
AcDbEntity
  8
Layer 1
 62
     7
420
 16777215
370
    30
100
AcDbVertex
100
AcDb2dVertex
 10
40.56113302068224
 20
-0.9861112947229836
 30
0.0
  0
VERTEX
  5
343
330
33B
100
AcDbEntity
  8
Layer 1
 62
     7
420
 16777215
370
    30
100
AcDbVertex
100
AcDb2dVertex
 10
41.46664478391209
 20
-0.9861112947229836
 30
0.0
  0
VERTEX
  5
344
330
33B
100
AcDbEntity
  8
Layer 1
 62
     7
420
 16777215
370
    30
100
AcDbVertex
100
AcDb2dVertex
 10
41.46664478391209
 20
-1.104221527934467
 30
0.0
  0
VERTEX
  5
345
330
33B
100
AcDbEntity
  8
Layer 1
 62
     7
420
 16777215
370
    30
100
AcDbVertex
100
AcDb2dVertex
 10
42.37215654714193
 20
-1.104221527934467
 30
0.0
  0
VERTEX
  5
346
330
33B
100
AcDbEntity
  8
Layer 1
 62
     7
420
 16777215
370
    30
100
AcDbVertex
100
AcDb2dVertex
 10
42.37215654714193
 20
-0.9861112947229836
 30
0.0
  0
VERTEX
  5
347
330
33B
100
AcDbEntity
  8
Layer 1
 62
     7
420
 16777215
370
    30
100
AcDbVertex
100
AcDb2dVertex
 10
43.69302306512673
 20
-0.9861112947229836
 30
0.0
  0
VERTEX
  5
348
330
33B
100
AcDbEntity
  8
Layer 1
 62
     7
420
 16777215
370
    30
100
AcDbVertex
100
AcDb2dVertex
 10
43.69302306512673
 20
-1.104221527934467
 30
0.0
  0
VERTEX
  5
349
330
33B
100
AcDbEntity
  8
Layer 1
 62
     7
420
 16777215
370
    30
100
AcDbVertex
100
AcDb2dVertex
 10
44.89577885187052
 20
-1.104221527934467
 30
0.0
  0
VERTEX
  5
34A
330
33B
100
AcDbEntity
  8
Layer 1
 62
     7
420
 16777215
370
    30
100
AcDbVertex
100
AcDb2dVertex
 10
44.89577885187052
 20
-1.986111337770101
 30
0.0
  0
VERTEX
  5
34B
330
33B
100
AcDbEntity
  8
Layer 1
 62
     7
420
 16777215
370
    30
100
AcDbVertex
100
AcDb2dVertex
 10
45.0138892440276
 20
-1.986111337770101
 30
0.0
  0
VERTEX
  5
34C
330
33B
100
AcDbEntity
  8
Layer 1
 62
     7
420
 16777215
370
    30
100
AcDbVertex
100
AcDb2dVertex
 10
45.0138892440276
 20
-2.986111380817217
 30
0.0
  0
VERTEX
  5
34D
330
33B
100
AcDbEntity
  8
Layer 1
 62
     7
420
 16777215
370
    30
100
AcDbVertex
100
AcDb2dVertex
 10
44.89577885187052
 20
-2.986111380817217
 30
0.0
  0
VERTEX
  5
34E
330
33B
100
AcDbEntity
  8
Layer 1
 62
     7
420
 16777215
370
    30
100
AcDbVertex
100
AcDb2dVertex
 10
44.89577885187052
 20
-3.98611125432237
 30
0.0
  0
VERTEX
  5
34F
330
33B
100
AcDbEntity
  8
Layer 1
 62
     7
420
 16777215
370
    30
100
AcDbVertex
100
AcDb2dVertex
 10
45.0138892440276
 20
-3.98611125432237
 30
0.0
  0
VERTEX
  5
350
330
33B
100
AcDbEntity
  8
Layer 1
 62
     7
420
 16777215
370
    30
100
AcDbVertex
100
AcDb2dVertex
 10
45.0138892440276
 20
-4.986111466911451
 30
0.0
  0
VERTEX
  5
351
330
33B
100
AcDbEntity
  8
Layer 1
 62
     7
420
 16777215
370
    30
100
AcDbVertex
100
AcDb2dVertex
 10
44.89577885187052
 20
-4.986111466911451
 30
0.0
  0
VERTEX
  5
352
330
33B
100
AcDbEntity
  8
Layer 1
 62
     7
420
 16777215
370
    30
100
AcDbVertex
100
AcDb2dVertex
 10
44.89577885187052
 20
-5.868001287343455
 30
0.0
  0
VERTEX
  5
353
330
33B
100
AcDbEntity
  8
Layer 1
 62
     7
420
 16777215
370
    30
100
AcDbVertex
100
AcDb2dVertex
 10
43.69302306512673
 20
-5.868001287343455
 30
0.0
  0
VERTEX
  5
354
330
33B
100
AcDbEntity
  8
Layer 1
 62
     7
420
 16777215
370
    30
100
AcDbVertex
100
AcDb2dVertex
 10
43.69302306512673
 20
-5.986111340416604
 30
0.0
  0
VERTEX
  5
355
330
33B
100
AcDbEntity
  8
Layer 1
 62
     7
420
 16777215
370
    30
100
AcDbVertex
100
AcDb2dVertex
 10
42.37215654714193
 20
-5.986111340416604
 30
0.0
  0
VERTEX
  5
356
330
33B
100
AcDbEntity
  8
Layer 1
 62
     7
420
 16777215
370
    30
100
AcDbVertex
100
AcDb2dVertex
 10
42.37215654714193
 20
-5.868001287343455
 30
0.0
  0
VERTEX
  5
357
330
33B
100
AcDbEntity
  8
Layer 1
 62
     7
420
 16777215
370
    30
100
AcDbVertex
100
AcDb2dVertex
 10
41.46664478391209
 20
-5.868001287343455
 30
0.0
  0
VERTEX
  5
358
330
33B
100
AcDbEntity
  8
Layer 1
 62
     7
420
 16777215
370
    30
100
AcDbVertex
100
AcDb2dVertex
 10
41.46664478391209
 20
-5.986111340416604
 30
0.0
  0
VERTEX
  5
359
330
33B
100
AcDbEntity
  8
Layer 1
 62
     7
420
 16777215
370
    30
100
AcDbVertex
100
AcDb2dVertex
 10
40.56113302068224
 20
-5.986111340416604
 30
0.0
  0
VERTEX
  5
35A
330
33B
100
AcDbEntity
  8
Layer 1
 62
     7
420
 16777215
370
    30
100
AcDbVertex
100
AcDb2dVertex
 10
40.56113302068224
 20
-5.868001287343455
 30
0.0
  0
VERTEX
  5
35B
330
33B
100
AcDbEntity
  8
Layer 1
 62
     7
420
 16777215
370
    30
100
AcDbVertex
100
AcDb2dVertex
 10
39.65562125745239
 20
-5.868001287343455
 30
0.0
  0
VERTEX
  5
35C
330
33B
100
AcDbEntity
  8
Layer 1
 62
     7
420
 16777215
370
    30
100
AcDbVertex
100
AcDb2dVertex
 10
39.65562125745239
 20
-5.986111340416604
 30
0.0
  0
VERTEX
  5
35D
330
33B
100
AcDbEntity
  8
Layer 1
 62
     7
420
 16777215
370
    30
100
AcDbVertex
100
AcDb2dVertex
 10
38.33475507855152
 20
-5.986111340416604
 30
0.0
  0
VERTEX
  5
35E
330
33B
100
AcDbEntity
  8
Layer 1
 62
     7
420
 16777215
370
    30
100
AcDbVertex
100
AcDb2dVertex
 10
38.33475507855152
 20
-5.868001287343455
 30
0.0
  0
VERTEX
  5
35F
330
33B
100
AcDbEntity
  8
Layer 1
 62
     7
420
 16777215
370
    30
100
AcDbVertex
100
AcDb2dVertex
 10
37.13199913286214
 20
-5.868001287343455
 30
0.0
  0
VERTEX
  5
360
330
33B
100
AcDbEntity
  8
Layer 1
 62
     7
420
 16777215
370
    30
100
AcDbVertex
100
AcDb2dVertex
 10
37.13199913286214
 20
-4.986111466911451
 30
0.0
  0
VERTEX
  5
361
330
33B
100
AcDbEntity
  8
Layer 1
 62
     7
420
 16777215
370
    30
100
AcDbVertex
100
AcDb2dVertex
 10
37.01388889965066
 20
-4.986111466911451
 30
0.0
  0
VERTEX
  5
362
330
33B
100
AcDbEntity
  8
Layer 1
 62
     7
420
 16777215
370
    30
100
AcDbVertex
100
AcDb2dVertex
 10
37.01388889965066
 20
-3.98611125432237
 30
0.0
  0
VERTEX
  5
363
330
33B
100
AcDbEntity
  8
Layer 1
 62
     7
420
 16777215
370
    30
100
AcDbVertex
100
AcDb2dVertex
 10
37.13199913286214
 20
-3.98611125432237
 30
0.0
  0
VERTEX
  5
364
330
33B
100
AcDbEntity
  8
Layer 1
 62
     7
420
 16777215
370
    30
100
AcDbVertex
100
AcDb2dVertex
 10
37.13199913286214
 20
-2.986111380817217
 30
0.0
  0
VERTEX
  5
365
330
33B
100
AcDbEntity
  8
Layer 1
 62
     7
420
 16777215
370
    30
100
AcDbVertex
100
AcDb2dVertex
 10
37.01388889965066
 20
-2.986111380817217
 30
0.0
  0
VERTEX
  5
366
330
33B
100
AcDbEntity
  8
Layer 1
 62
     7
420
 16777215
370
    30
100
AcDbVertex
100
AcDb2dVertex
 10
37.01388889965066
 20
-1.986111337770101
 30
0.0
  0
VERTEX
  5
367
330
33B
100
AcDbEntity
  8
Layer 1
 62
     7
420
 16777215
370
    30
100
AcDbVertex
100
AcDb2dVertex
 10
37.13199913286214
 20
-1.986111337770101
 30
0.0
  0
VERTEX
  5
368
330
33B
100
AcDbEntity
  8
Layer 1
 62
     7
420
 16777215
370
    30
100
AcDbVertex
100
AcDb2dVertex
 10
37.13199913286214
 20
-1.104221527934467
 30
0.0
  0
SEQEND
  5
369
330
33B
100
AcDbEntity
  8
Layer 1
 62
     7
420
 16777215
370
    30
  0
ENDBLK
  5
33A
330
337
100
AcDbEntity
  8
0
100
AcDbBlockEnd
  0
BLOCK
  5
36C
330
36A
100
AcDbEntity
  8
0
100
AcDbBlockBegin
  2
block 19
 70
     0
 10
0.0
 20
0.0
 30
0.0
  3
block 19
  1

  0
POLYLINE
  5
36E
330
36A
100
AcDbEntity
  8
Layer 1
 62
     7
420
 16777215
370
    30
100
AcDb2dPolyline
 66
     1
 10
0.0
 20
0.0
 30
0.0
  0
VERTEX
  5
36F
330
36E
100
AcDbEntity
  8
Layer 1
 62
     7
420
 16777215
370
    30
100
AcDbVertex
100
AcDb2dVertex
 10
28.90977704308941
 20
-11.82644375015671
 30
0.0
  0
VERTEX
  5
370
330
36E
100
AcDbEntity
  8
Layer 1
 62
     7
420
 16777215
370
    30
100
AcDbVertex
100
AcDb2dVertex
 10
30.11253298877879
 20
-11.82644375015671
 30
0.0
  0
VERTEX
  5
371
330
36E
100
AcDbEntity
  8
Layer 1
 62
     7
420
 16777215
370
    30
100
AcDbVertex
100
AcDb2dVertex
 10
30.11253298877879
 20
-11.7083335169452
 30
0.0
  0
VERTEX
  5
372
330
36E
100
AcDbEntity
  8
Layer 1
 62
     7
420
 16777215
370
    30
100
AcDbVertex
100
AcDb2dVertex
 10
31.43339916767965
 20
-11.7083335169452
 30
0.0
  0
VERTEX
  5
373
330
36E
100
AcDbEntity
  8
Layer 1
 62
     7
420
 16777215
370
    30
100
AcDbVertex
100
AcDb2dVertex
 10
31.43339916767965
 20
-11.82644375015671
 30
0.0
  0
VERTEX
  5
374
330
36E
100
AcDbEntity
  8
Layer 1
 62
     7
420
 16777215
370
    30
100
AcDbVertex
100
AcDb2dVertex
 10
32.33891093090951
 20
-11.82644375015671
 30
0.0
  0
VERTEX
  5
375
330
36E
100
AcDbEntity
  8
Layer 1
 62
     7
420
 16777215
370
    30
100
AcDbVertex
100
AcDb2dVertex
 10
32.33891093090951
 20
-11.7083335169452
 30
0.0
  0
VERTEX
  5
376
330
36E
100
AcDbEntity
  8
Layer 1
 62
     7
420
 16777215
370
    30
100
AcDbVertex
100
AcDb2dVertex
 10
33.24442269413935
 20
-11.7083335169452
 30
0.0
  0
VERTEX
  5
377
330
36E
100
AcDbEntity
  8
Layer 1
 62
     7
420
 16777215
370
    30
100
AcDbVertex
100
AcDb2dVertex
 10
33.24442269413935
 20
-11.82644375015671
 30
0.0
  0
VERTEX
  5
378
330
36E
100
AcDbEntity
  8
Layer 1
 62
     7
420
 16777215
370
    30
100
AcDbVertex
100
AcDb2dVertex
 10
34.1499344573692
 20
-11.82644375015671
 30
0.0
  0
VERTEX
  5
379
330
36E
100
AcDbEntity
  8
Layer 1
 62
     7
420
 16777215
370
    30
100
AcDbVertex
100
AcDb2dVertex
 10
34.1499344573692
 20
-11.7083335169452
 30
0.0
  0
VERTEX
  5
37A
330
36E
100
AcDbEntity
  8
Layer 1
 62
     7
420
 16777215
370
    30
100
AcDbVertex
100
AcDb2dVertex
 10
35.470800975354
 20
-11.7083335169452
 30
0.0
  0
VERTEX
  5
37B
330
36E
100
AcDbEntity
  8
Layer 1
 62
     7
420
 16777215
370
    30
100
AcDbVertex
100
AcDb2dVertex
 10
35.470800975354
 20
-11.82644375015671
 30
0.0
  0
VERTEX
  5
37C
330
36E
100
AcDbEntity
  8
Layer 1
 62
     7
420
 16777215
370
    30
100
AcDbVertex
100
AcDb2dVertex
 10
36.67355676209778
 20
-11.82644375015671
 30
0.0
  0
VERTEX
  5
37D
330
36E
100
AcDbEntity
  8
Layer 1
 62
     7
420
 16777215
370
    30
100
AcDbVertex
100
AcDb2dVertex
 10
36.67355676209778
 20
-12.70833355999235
 30
0.0
  0
VERTEX
  5
37E
330
36E
100
AcDbEntity
  8
Layer 1
 62
     7
420
 16777215
370
    30
100
AcDbVertex
100
AcDb2dVertex
 10
36.79166715425486
 20
-12.70833355999235
 30
0.0
  0
VERTEX
  5
37F
330
36E
100
AcDbEntity
  8
Layer 1
 62
     7
420
 16777215
370
    30
100
AcDbVertex
100
AcDb2dVertex
 10
36.79166715425486
 20
-13.70833360303944
 30
0.0
  0
VERTEX
  5
380
330
36E
100
AcDbEntity
  8
Layer 1
 62
     7
420
 16777215
370
    30
100
AcDbVertex
100
AcDb2dVertex
 10
36.67355676209778
 20
-13.70833360303944
 30
0.0
  0
VERTEX
  5
381
330
36E
100
AcDbEntity
  8
Layer 1
 62
     7
420
 16777215
370
    30
100
AcDbVertex
100
AcDb2dVertex
 10
36.67355676209778
 20
-14.70833347654459
 30
0.0
  0
VERTEX
  5
382
330
36E
100
AcDbEntity
  8
Layer 1
 62
     7
420
 16777215
370
    30
100
AcDbVertex
100
AcDb2dVertex
 10
36.79166715425486
 20
-14.70833347654459
 30
0.0
  0
VERTEX
  5
383
330
36E
100
AcDbEntity
  8
Layer 1
 62
     7
420
 16777215
370
    30
100
AcDbVertex
100
AcDb2dVertex
 10
36.79166715425486
 20
-15.70833368913367
 30
0.0
  0
VERTEX
  5
384
330
36E
100
AcDbEntity
  8
Layer 1
 62
     7
420
 16777215
370
    30
100
AcDbVertex
100
AcDb2dVertex
 10
36.67355676209778
 20
-15.70833368913367
 30
0.0
  0
VERTEX
  5
385
330
36E
100
AcDbEntity
  8
Layer 1
 62
     7
420
 16777215
370
    30
100
AcDbVertex
100
AcDb2dVertex
 10
36.67355676209778
 20
-16.59022350956568
 30
0.0
  0
VERTEX
  5
386
330
36E
100
AcDbEntity
  8
Layer 1
 62
     7
420
 16777215
370
    30
100
AcDbVertex
100
AcDb2dVertex
 10
35.470800975354
 20
-16.59022350956568
 30
0.0
  0
VERTEX
  5
387
330
36E
100
AcDbEntity
  8
Layer 1
 62
     7
420
 16777215
370
    30
100
AcDbVertex
100
AcDb2dVertex
 10
35.470800975354
 20
-16.70833356263882
 30
0.0
  0
VERTEX
  5
388
330
36E
100
AcDbEntity
  8
Layer 1
 62
     7
420
 16777215
370
    30
100
AcDbVertex
100
AcDb2dVertex
 10
34.1499344573692
 20
-16.70833356263882
 30
0.0
  0
VERTEX
  5
389
330
36E
100
AcDbEntity
  8
Layer 1
 62
     7
420
 16777215
370
    30
100
AcDbVertex
100
AcDb2dVertex
 10
34.1499344573692
 20
-16.59022350956568
 30
0.0
  0
VERTEX
  5
38A
330
36E
100
AcDbEntity
  8
Layer 1
 62
     7
420
 16777215
370
    30
100
AcDbVertex
100
AcDb2dVertex
 10
33.24442269413935
 20
-16.59022350956568
 30
0.0
  0
VERTEX
  5
38B
330
36E
100
AcDbEntity
  8
Layer 1
 62
     7
420
 16777215
370
    30
100
AcDbVertex
100
AcDb2dVertex
 10
33.24442269413935
 20
-16.70833356263882
 30
0.0
  0
VERTEX
  5
38C
330
36E
100
AcDbEntity
  8
Layer 1
 62
     7
420
 16777215
370
    30
100
AcDbVertex
100
AcDb2dVertex
 10
32.33891093090951
 20
-16.70833356263882
 30
0.0
  0
VERTEX
  5
38D
330
36E
100
AcDbEntity
  8
Layer 1
 62
     7
420
 16777215
370
    30
100
AcDbVertex
100
AcDb2dVertex
 10
32.33891093090951
 20
-16.59022350956568
 30
0.0
  0
VERTEX
  5
38E
330
36E
100
AcDbEntity
  8
Layer 1
 62
     7
420
 16777215
370
    30
100
AcDbVertex
100
AcDb2dVertex
 10
31.43339916767965
 20
-16.59022350956568
 30
0.0
  0
VERTEX
  5
38F
330
36E
100
AcDbEntity
  8
Layer 1
 62
     7
420
 16777215
370
    30
100
AcDbVertex
100
AcDb2dVertex
 10
31.43339916767965
 20
-16.70833356263882
 30
0.0
  0
VERTEX
  5
390
330
36E
100
AcDbEntity
  8
Layer 1
 62
     7
420
 16777215
370
    30
100
AcDbVertex
100
AcDb2dVertex
 10
30.11253298877879
 20
-16.70833356263882
 30
0.0
  0
VERTEX
  5
391
330
36E
100
AcDbEntity
  8
Layer 1
 62
     7
420
 16777215
370
    30
100
AcDbVertex
100
AcDb2dVertex
 10
30.11253298877879
 20
-16.59022350956568
 30
0.0
  0
VERTEX
  5
392
330
36E
100
AcDbEntity
  8
Layer 1
 62
     7
420
 16777215
370
    30
100
AcDbVertex
100
AcDb2dVertex
 10
28.90977704308941
 20
-16.59022350956568
 30
0.0
  0
VERTEX
  5
393
330
36E
100
AcDbEntity
  8
Layer 1
 62
     7
420
 16777215
370
    30
100
AcDbVertex
100
AcDb2dVertex
 10
28.90977704308941
 20
-15.70833368913367
 30
0.0
  0
VERTEX
  5
394
330
36E
100
AcDbEntity
  8
Layer 1
 62
     7
420
 16777215
370
    30
100
AcDbVertex
100
AcDb2dVertex
 10
28.79166680987792
 20
-15.70833368913367
 30
0.0
  0
VERTEX
  5
395
330
36E
100
AcDbEntity
  8
Layer 1
 62
     7
420
 16777215
370
    30
100
AcDbVertex
100
AcDb2dVertex
 10
28.79166680987792
 20
-14.70833347654459
 30
0.0
  0
VERTEX
  5
396
330
36E
100
AcDbEntity
  8
Layer 1
 62
     7
420
 16777215
370
    30
100
AcDbVertex
100
AcDb2dVertex
 10
28.90977704308941
 20
-14.70833347654459
 30
0.0
  0
VERTEX
  5
397
330
36E
100
AcDbEntity
  8
Layer 1
 62
     7
420
 16777215
370
    30
100
AcDbVertex
100
AcDb2dVertex
 10
28.90977704308941
 20
-13.70833360303944
 30
0.0
  0
VERTEX
  5
398
330
36E
100
AcDbEntity
  8
Layer 1
 62
     7
420
 16777215
370
    30
100
AcDbVertex
100
AcDb2dVertex
 10
28.79166680987792
 20
-13.70833360303944
 30
0.0
  0
VERTEX
  5
399
330
36E
100
AcDbEntity
  8
Layer 1
 62
     7
420
 16777215
370
    30
100
AcDbVertex
100
AcDb2dVertex
 10
28.79166680987792
 20
-12.70833355999235
 30
0.0
  0
VERTEX
  5
39A
330
36E
100
AcDbEntity
  8
Layer 1
 62
     7
420
 16777215
370
    30
100
AcDbVertex
100
AcDb2dVertex
 10
28.90977704308941
 20
-12.70833355999235
 30
0.0
  0
VERTEX
  5
39B
330
36E
100
AcDbEntity
  8
Layer 1
 62
     7
420
 16777215
370
    30
100
AcDbVertex
100
AcDb2dVertex
 10
28.90977704308941
 20
-11.82644375015671
 30
0.0
  0
SEQEND
  5
39C
330
36E
100
AcDbEntity
  8
Layer 1
 62
     7
420
 16777215
370
    30
  0
ENDBLK
  5
36D
330
36A
100
AcDbEntity
  8
0
100
AcDbBlockEnd
  0
BLOCK
  5
3D5
330
3D3
100
AcDbEntity
  8
0
100
AcDbBlockBegin
  2
block 20
 70
     0
 10
0.0
 20
0.0
 30
0.0
  3
block 20
  1

  0
POLYLINE
  5
3D7
330
3D3
100
AcDbEntity
  8
Layer 1
 62
     7
420
 16777215
370
    30
100
AcDb2dPolyline
 66
     1
 10
0.0
 20
0.0
 30
0.0
  0
VERTEX
  5
3D8
330
3D7
100
AcDbEntity
  8
Layer 1
 62
     7
420
 16777215
370
    30
100
AcDbVertex
100
AcDb2dVertex
 10
18.9513732754936
 20
-15.05135652132215
 30
0.0
  0
VERTEX
  5
3D9
330
3D7
100
AcDbEntity
  8
Layer 1
 62
     7
420
 16777215
370
    30
100
AcDbVertex
100
AcDb2dVertex
 10
18.95655062255951
 20
-14.56144518470561
 30
0.0
  0
VERTEX
  5
3DA
330
3D7
100
AcDbEntity
  8
Layer 1
 62
     7
420
 16777215
370
    30
100
AcDbVertex
100
AcDb2dVertex
 10
19.02314795139617
 20
-14.56214898039118
 30
0.0
  0
VERTEX
  5
3DB
330
3D7
100
AcDbEntity
  8
Layer 1
 62
     7
420
 16777215
370
    30
100
AcDbVertex
100
AcDb2dVertex
 10
19.02901869310454
 20
-14.0066245234331
 30
0.0
  0
VERTEX
  5
3DC
330
3D7
100
AcDbEntity
  8
Layer 1
 62
     7
420
 16777215
370
    30
100
AcDbVertex
100
AcDb2dVertex
 10
18.96242136426794
 20
-14.00592072774745
 30
0.0
  0
VERTEX
  5
3DD
330
3D7
100
AcDbEntity
  8
Layer 1
 62
     7
420
 16777215
370
    30
100
AcDbVertex
100
AcDb2dVertex
 10
18.96829210498097
 20
-13.45039636497404
 30
0.0
  0
VERTEX
  5
3DE
330
3D7
100
AcDbEntity
  8
Layer 1
 62
     7
420
 16777215
370
    30
100
AcDbVertex
100
AcDb2dVertex
 10
19.03488943381757
 20
-13.45110016065968
 30
0.0
  0
VERTEX
  5
3DF
330
3D7
100
AcDbEntity
  8
Layer 1
 62
     7
420
 16777215
370
    30
100
AcDbVertex
100
AcDb2dVertex
 10
19.04076017652126
 20
-12.89557560951685
 30
0.0
  0
VERTEX
  5
3E0
330
3D7
100
AcDbEntity
  8
Layer 1
 62
     7
420
 16777215
370
    30
100
AcDbVertex
100
AcDb2dVertex
 10
18.97416284768471
 20
-12.89487181383119
 30
0.0
  0
VERTEX
  5
3E1
330
3D7
100
AcDbEntity
  8
Layer 1
 62
     7
420
 16777215
370
    30
100
AcDbVertex
100
AcDb2dVertex
 10
18.9793401948128
 20
-12.40496047132814
 30
0.0
  0
VERTEX
  5
3E2
330
3D7
100
AcDbEntity
  8
Layer 1
 62
     7
420
 16777215
370
    30
100
AcDbVertex
100
AcDb2dVertex
 10
19.54319761760017
 20
-12.41091927520804
 30
0.0
  0
VERTEX
  5
3E3
330
3D7
100
AcDbEntity
  8
Layer 1
 62
     7
420
 16777215
370
    30
100
AcDbVertex
100
AcDb2dVertex
 10
19.54389101118507
 20
-12.34530625493779
 30
0.0
  0
VERTEX
  5
3E4
330
3D7
100
AcDbEntity
  8
Layer 1
 62
     7
420
 16777215
370
    30
100
AcDbVertex
100
AcDb2dVertex
 10
20.10774843397247
 20
-12.35126505881774
 30
0.0
  0
VERTEX
  5
3E5
330
3D7
100
AcDbEntity
  8
Layer 1
 62
     7
420
 16777215
370
    30
100
AcDbVertex
100
AcDb2dVertex
 10
20.10705504038752
 20
-12.41687807908801
 30
0.0
  0
VERTEX
  5
3E6
330
3D7
100
AcDbEntity
  8
Layer 1
 62
     7
420
 16777215
370
    30
100
AcDbVertex
100
AcDb2dVertex
 10
20.67091236757743
 20
-12.42283688195771
 30
0.0
  0
VERTEX
  5
3E7
330
3D7
100
AcDbEntity
  8
Layer 1
 62
     7
420
 16777215
370
    30
100
AcDbVertex
100
AcDb2dVertex
 10
20.6716057611623
 20
-12.35722386168744
 30
0.0
  0
VERTEX
  5
3E8
330
3D7
100
AcDbEntity
  8
Layer 1
 62
     7
420
 16777215
370
    30
100
AcDbVertex
100
AcDb2dVertex
 10
21.23546327954717
 20
-12.36318266657766
 30
0.0
  0
VERTEX
  5
3E9
330
3D7
100
AcDbEntity
  8
Layer 1
 62
     7
420
 16777215
370
    30
100
AcDbVertex
100
AcDb2dVertex
 10
21.23476988596227
 20
-12.42879568684798
 30
0.0
  0
VERTEX
  5
3EA
330
3D7
100
AcDbEntity
  8
Layer 1
 62
     7
420
 16777215
370
    30
100
AcDbVertex
100
AcDb2dVertex
 10
21.79862721315213
 20
-12.43475448971761
 30
0.0
  0
VERTEX
  5
3EB
330
3D7
100
AcDbEntity
  8
Layer 1
 62
     7
420
 16777215
370
    30
100
AcDbVertex
100
AcDb2dVertex
 10
21.79344986602405
 20
-12.92466583222075
 30
0.0
  0
VERTEX
  5
3EC
330
3D7
100
AcDbEntity
  8
Layer 1
 62
     7
420
 16777215
370
    30
100
AcDbVertex
100
AcDb2dVertex
 10
21.72685263875976
 20
-12.92396203760856
 30
0.0
  0
VERTEX
  5
3ED
330
3D7
100
AcDbEntity
  8
Layer 1
 62
     7
420
 16777215
370
    30
100
AcDbVertex
100
AcDb2dVertex
 10
21.720981896056
 20
-13.47948658875137
 30
0.0
  0
VERTEX
  5
3EE
330
3D7
100
AcDbEntity
  8
Layer 1
 62
     7
420
 16777215
370
    30
100
AcDbVertex
100
AcDb2dVertex
 10
21.78757912332031
 20
-13.48019038336361
 30
0.0
  0
VERTEX
  5
3EF
330
3D7
100
AcDbEntity
  8
Layer 1
 62
     7
420
 16777215
370
    30
100
AcDbVertex
100
AcDb2dVertex
 10
21.78170838260727
 20
-14.03571474613702
 30
0.0
  0
VERTEX
  5
3F0
330
3D7
100
AcDbEntity
  8
Layer 1
 62
     7
420
 16777215
370
    30
100
AcDbVertex
100
AcDb2dVertex
 10
21.71511115534301
 20
-14.03501095152481
 30
0.0
  0
VERTEX
  5
3F1
330
3D7
100
AcDbEntity
  8
Layer 1
 62
     7
420
 16777215
370
    30
100
AcDbVertex
100
AcDb2dVertex
 10
21.70924041363464
 20
-14.59053540848294
 30
0.0
  0
VERTEX
  5
3F2
330
3D7
100
AcDbEntity
  8
Layer 1
 62
     7
420
 16777215
370
    30
100
AcDbVertex
100
AcDb2dVertex
 10
21.77583764089892
 20
-14.59123920309515
 30
0.0
  0
VERTEX
  5
3F3
330
3D7
100
AcDbEntity
  8
Layer 1
 62
     7
420
 16777215
370
    30
100
AcDbVertex
100
AcDb2dVertex
 10
21.77066029383301
 20
-15.08115053971167
 30
0.0
  0
VERTEX
  5
3F4
330
3D7
100
AcDbEntity
  8
Layer 1
 62
     7
420
 16777215
370
    30
100
AcDbVertex
100
AcDb2dVertex
 10
21.2068029666431
 20
-15.07519173684202
 30
0.0
  0
VERTEX
  5
3F5
330
3D7
100
AcDbEntity
  8
Layer 1
 62
     7
420
 16777215
370
    30
100
AcDbVertex
100
AcDb2dVertex
 10
21.20610957200061
 20
-15.14080485718359
 30
0.0
  0
VERTEX
  5
3F6
330
3D7
100
AcDbEntity
  8
Layer 1
 62
     7
420
 16777215
370
    30
100
AcDbVertex
100
AcDb2dVertex
 10
20.64225205361577
 20
-15.13484605229334
 30
0.0
  0
VERTEX
  5
3F7
330
3D7
100
AcDbEntity
  8
Layer 1
 62
     7
420
 16777215
370
    30
100
AcDbVertex
100
AcDb2dVertex
 10
20.64294544825826
 20
-15.06923293195177
 30
0.0
  0
VERTEX
  5
3F8
330
3D7
100
AcDbEntity
  8
Layer 1
 62
     7
420
 16777215
370
    30
100
AcDbVertex
100
AcDb2dVertex
 10
20.07908812106838
 20
-15.06327412908207
 30
0.0
  0
VERTEX
  5
3F9
330
3D7
100
AcDbEntity
  8
Layer 1
 62
     7
420
 16777215
370
    30
100
AcDbVertex
100
AcDb2dVertex
 10
20.07839472642591
 20
-15.12888724942367
 30
0.0
  0
VERTEX
  5
3FA
330
3D7
100
AcDbEntity
  8
Layer 1
 62
     7
420
 16777215
370
    30
100
AcDbVertex
100
AcDb2dVertex
 10
19.51453730363854
 20
-15.12292844554369
 30
0.0
  0
VERTEX
  5
3FB
330
3D7
100
AcDbEntity
  8
Layer 1
 62
     7
420
 16777215
370
    30
100
AcDbVertex
100
AcDb2dVertex
 10
19.515230698281
 20
-15.05731532520215
 30
0.0
  0
VERTEX
  5
3FC
330
3D7
100
AcDbEntity
  8
Layer 1
 62
     7
420
 16777215
370
    30
100
AcDbVertex
100
AcDb2dVertex
 10
18.9513732754936
 20
-15.05135652132215
 30
0.0
  0
SEQEND
  5
3FD
330
3D7
100
AcDbEntity
  8
Layer 1
 62
     7
420
 16777215
370
    30
  0
ENDBLK
  5
3D6
330
3D3
100
AcDbEntity
  8
0
100
AcDbBlockEnd
  0
BLOCK
  5
400
330
3FE
100
AcDbEntity
  8
0
100
AcDbBlockBegin
  2
block 21
 70
     0
 10
0.0
 20
0.0
 30
0.0
  3
block 21
  1

  0
POLYLINE
  5
402
330
3FE
100
AcDbEntity
  8
Layer 1
 62
     7
420
 16777215
370
    30
100
AcDb2dPolyline
 66
     1
 10
0.0
 20
0.0
 30
0.0
  0
VERTEX
  5
403
330
402
100
AcDbEntity
  8
Layer 1
 62
     7
420
 16777215
370
    30
100
AcDbVertex
100
AcDb2dVertex
 10
22.58714744483662
 20
-16.39862204498417
 30
0.0
  0
VERTEX
  5
404
330
402
100
AcDbEntity
  8
Layer 1
 62
     7
420
 16777215
370
    30
100
AcDbVertex
100
AcDb2dVertex
 10
23.47459751864156
 20
-16.39862204498417
 30
0.0
  0
VERTEX
  5
405
330
402
100
AcDbEntity
  8
Layer 1
 62
     7
420
 16777215
370
    30
100
AcDbVertex
100
AcDb2dVertex
 10
23.47459751864156
 20
-16.33333333333333
 30
0.0
  0
VERTEX
  5
406
330
402
100
AcDbEntity
  8
Layer 1
 62
     7
420
 16777215
370
    30
100
AcDbVertex
100
AcDb2dVertex
 10
24.44919489407188
 20
-16.33333333333333
 30
0.0
  0
VERTEX
  5
407
330
402
100
AcDbEntity
  8
Layer 1
 62
     7
420
 16777215
370
    30
100
AcDbVertex
100
AcDb2dVertex
 10
24.44919489407188
 20
-16.39862204498417
 30
0.0
  0
VERTEX
  5
408
330
402
100
AcDbEntity
  8
Layer 1
 62
     7
420
 16777215
370
    30
100
AcDbVertex
100
AcDb2dVertex
 10
25.11732418828958
 20
-16.39862204498417
 30
0.0
  0
VERTEX
  5
409
330
402
100
AcDbEntity
  8
Layer 1
 62
     7
420
 16777215
370
    30
100
AcDbVertex
100
AcDb2dVertex
 10
25.11732418828958
 20
-16.33333333333333
 30
0.0
  0
VERTEX
  5
40A
330
402
100
AcDbEntity
  8
Layer 1
 62
     7
420
 16777215
370
    30
100
AcDbVertex
100
AcDb2dVertex
 10
25.78545348250731
 20
-16.33333333333333
 30
0.0
  0
VERTEX
  5
40B
330
402
100
AcDbEntity
  8
Layer 1
 62
     7
420
 16777215
370
    30
100
AcDbVertex
100
AcDb2dVertex
 10
25.78545348250731
 20
-16.39862204498417
 30
0.0
  0
VERTEX
  5
40C
330
402
100
AcDbEntity
  8
Layer 1
 62
     7
420
 16777215
370
    30
100
AcDbVertex
100
AcDb2dVertex
 10
26.45358277672507
 20
-16.39862204498417
 30
0.0
  0
VERTEX
  5
40D
330
402
100
AcDbEntity
  8
Layer 1
 62
     7
420
 16777215
370
    30
100
AcDbVertex
100
AcDb2dVertex
 10
26.45358277672507
 20
-16.33333333333333
 30
0.0
  0
VERTEX
  5
40E
330
402
100
AcDbEntity
  8
Layer 1
 62
     7
420
 16777215
370
    30
100
AcDbVertex
100
AcDb2dVertex
 10
27.42818040234748
 20
-16.33333333333333
 30
0.0
  0
VERTEX
  5
40F
330
402
100
AcDbEntity
  8
Layer 1
 62
     7
420
 16777215
370
    30
100
AcDbVertex
100
AcDb2dVertex
 10
27.42818040234748
 20
-16.39862204498417
 30
0.0
  0
VERTEX
  5
410
330
402
100
AcDbEntity
  8
Layer 1
 62
     7
420
 16777215
370
    30
100
AcDbVertex
100
AcDb2dVertex
 10
28.31563035887489
 20
-16.39862204498417
 30
0.0
  0
VERTEX
  5
411
330
402
100
AcDbEntity
  8
Layer 1
 62
     7
420
 16777215
370
    30
100
AcDbVertex
100
AcDb2dVertex
 10
28.31563035887489
 20
-16.88611112985493
 30
0.0
  0
VERTEX
  5
412
330
402
100
AcDbEntity
  8
Layer 1
 62
     7
420
 16777215
370
    30
100
AcDbVertex
100
AcDb2dVertex
 10
28.40277777777778
 20
-16.88611112985493
 30
0.0
  0
VERTEX
  5
413
330
402
100
AcDbEntity
  8
Layer 1
 62
     7
420
 16777215
370
    30
100
AcDbVertex
100
AcDb2dVertex
 10
28.40277777777778
 20
-17.43888892637647
 30
0.0
  0
VERTEX
  5
414
330
402
100
AcDbEntity
  8
Layer 1
 62
     7
420
 16777215
370
    30
100
AcDbVertex
100
AcDb2dVertex
 10
28.31563035887489
 20
-17.43888892637647
 30
0.0
  0
VERTEX
  5
415
330
402
100
AcDbEntity
  8
Layer 1
 62
     7
420
 16777215
370
    30
100
AcDbVertex
100
AcDb2dVertex
 10
28.31563035887489
 20
-17.99166662917908
 30
0.0
  0
VERTEX
  5
416
330
402
100
AcDbEntity
  8
Layer 1
 62
     7
420
 16777215
370
    30
100
AcDbVertex
100
AcDb2dVertex
 10
28.40277777777778
 20
-17.99166662917908
 30
0.0
  0
VERTEX
  5
417
330
402
100
AcDbEntity
  8
Layer 1
 62
     7
420
 16777215
370
    30
100
AcDbVertex
100
AcDb2dVertex
 10
28.40277777777778
 20
-18.54444451941968
 30
0.0
  0
VERTEX
  5
418
330
402
100
AcDbEntity
  8
Layer 1
 62
     7
420
 16777215
370
    30
100
AcDbVertex
100
AcDb2dVertex
 10
28.31563035887489
 20
-18.54444451941968
 30
0.0
  0
VERTEX
  5
419
330
402
100
AcDbEntity
  8
Layer 1
 62
     7
420
 16777215
370
    30
100
AcDbVertex
100
AcDb2dVertex
 10
28.31563035887489
 20
-19.03193361014789
 30
0.0
  0
VERTEX
  5
41A
330
402
100
AcDbEntity
  8
Layer 1
 62
     7
420
 16777215
370
    30
100
AcDbVertex
100
AcDb2dVertex
 10
27.42818040234748
 20
-19.03193361014789
 30
0.0
  0
VERTEX
  5
41B
330
402
100
AcDbEntity
  8
Layer 1
 62
     7
420
 16777215
370
    30
100
AcDbVertex
100
AcDb2dVertex
 10
27.42818040234748
 20
-19.09722222222222
 30
0.0
  0
VERTEX
  5
41C
330
402
100
AcDbEntity
  8
Layer 1
 62
     7
420
 16777215
370
    30
100
AcDbVertex
100
AcDb2dVertex
 10
26.45358277672507
 20
-19.09722222222222
 30
0.0
  0
VERTEX
  5
41D
330
402
100
AcDbEntity
  8
Layer 1
 62
     7
420
 16777215
370
    30
100
AcDbVertex
100
AcDb2dVertex
 10
26.45358277672507
 20
-19.03193361014789
 30
0.0
  0
VERTEX
  5
41E
330
402
100
AcDbEntity
  8
Layer 1
 62
     7
420
 16777215
370
    30
100
AcDbVertex
100
AcDb2dVertex
 10
25.78545348250731
 20
-19.03193361014789
 30
0.0
  0
VERTEX
  5
41F
330
402
100
AcDbEntity
  8
Layer 1
 62
     7
420
 16777215
370
    30
100
AcDbVertex
100
AcDb2dVertex
 10
25.78545348250731
 20
-19.09722222222222
 30
0.0
  0
VERTEX
  5
420
330
402
100
AcDbEntity
  8
Layer 1
 62
     7
420
 16777215
370
    30
100
AcDbVertex
100
AcDb2dVertex
 10
25.11732418828958
 20
-19.09722222222222
 30
0.0
  0
VERTEX
  5
421
330
402
100
AcDbEntity
  8
Layer 1
 62
     7
420
 16777215
370
    30
100
AcDbVertex
100
AcDb2dVertex
 10
25.11732418828958
 20
-19.03193361014789
 30
0.0
  0
VERTEX
  5
422
330
402
100
AcDbEntity
  8
Layer 1
 62
     7
420
 16777215
370
    30
100
AcDbVertex
100
AcDb2dVertex
 10
24.44919489407188
 20
-19.03193361014789
 30
0.0
  0
VERTEX
  5
423
330
402
100
AcDbEntity
  8
Layer 1
 62
     7
420
 16777215
370
    30
100
AcDbVertex
100
AcDb2dVertex
 10
24.44919489407188
 20
-19.09722222222222
 30
0.0
  0
VERTEX
  5
424
330
402
100
AcDbEntity
  8
Layer 1
 62
     7
420
 16777215
370
    30
100
AcDbVertex
100
AcDb2dVertex
 10
23.47459751864156
 20
-19.09722222222222
 30
0.0
  0
VERTEX
  5
425
330
402
100
AcDbEntity
  8
Layer 1
 62
     7
420
 16777215
370
    30
100
AcDbVertex
100
AcDb2dVertex
 10
23.47459751864156
 20
-19.03193361014789
 30
0.0
  0
VERTEX
  5
426
330
402
100
AcDbEntity
  8
Layer 1
 62
     7
420
 16777215
370
    30
100
AcDbVertex
100
AcDb2dVertex
 10
22.58714744483662
 20
-19.03193361014789
 30
0.0
  0
VERTEX
  5
427
330
402
100
AcDbEntity
  8
Layer 1
 62
     7
420
 16777215
370
    30
100
AcDbVertex
100
AcDb2dVertex
 10
22.58714744483662
 20
-18.54444451941968
 30
0.0
  0
VERTEX
  5
428
330
402
100
AcDbEntity
  8
Layer 1
 62
     7
420
 16777215
370
    30
100
AcDbVertex
100
AcDb2dVertex
 10
22.50000014321126
 20
-18.54444451941968
 30
0.0
  0
VERTEX
  5
429
330
402
100
AcDbEntity
  8
Layer 1
 62
     7
420
 16777215
370
    30
100
AcDbVertex
100
AcDb2dVertex
 10
22.50000014321126
 20
-17.99166662917908
 30
0.0
  0
VERTEX
  5
42A
330
402
100
AcDbEntity
  8
Layer 1
 62
     7
420
 16777215
370
    30
100
AcDbVertex
100
AcDb2dVertex
 10
22.58714744483662
 20
-17.99166662917908
 30
0.0
  0
VERTEX
  5
42B
330
402
100
AcDbEntity
  8
Layer 1
 62
     7
420
 16777215
370
    30
100
AcDbVertex
100
AcDb2dVertex
 10
22.58714744483662
 20
-17.43888892637647
 30
0.0
  0
VERTEX
  5
42C
330
402
100
AcDbEntity
  8
Layer 1
 62
     7
420
 16777215
370
    30
100
AcDbVertex
100
AcDb2dVertex
 10
22.50000014321126
 20
-17.43888892637647
 30
0.0
  0
VERTEX
  5
42D
330
402
100
AcDbEntity
  8
Layer 1
 62
     7
420
 16777215
370
    30
100
AcDbVertex
100
AcDb2dVertex
 10
22.50000014321126
 20
-16.88611112985493
 30
0.0
  0
VERTEX
  5
42E
330
402
100
AcDbEntity
  8
Layer 1
 62
     7
420
 16777215
370
    30
100
AcDbVertex
100
AcDb2dVertex
 10
22.58714744483662
 20
-16.88611112985493
 30
0.0
  0
VERTEX
  5
42F
330
402
100
AcDbEntity
  8
Layer 1
 62
     7
420
 16777215
370
    30
100
AcDbVertex
100
AcDb2dVertex
 10
22.58714744483662
 20
-16.39862204498417
 30
0.0
  0
SEQEND
  5
430
330
402
100
AcDbEntity
  8
Layer 1
 62
     7
420
 16777215
370
    30
  0
ENDBLK
  5
401
330
3FE
100
AcDbEntity
  8
0
100
AcDbBlockEnd
  0
BLOCK
  5
433
330
431
100
AcDbEntity
  8
0
100
AcDbBlockBegin
  2
block 22
 70
     0
 10
0.0
 20
0.0
 30
0.0
  3
block 22
  1

  0
SPLINE
  5
435
330
431
100
AcDbEntity
  8
Layer 1
 62
     7
420
 16777215
370
    30
100
AcDbSpline
210
0.0
220
0.0
230
1.0
 70
    11
 71
     3
 72
   221
 73
   217
 74
     0
 42
0.0000000001
 43
0.0000000001
 12
1.0
 22
0.0
 32
0.0
 13
1.0
 23
0.0
 33
0.0
 40
0.0
 40
0.0
 40
0.0
 40
0.0
 40
1.0
 40
1.0
 40
1.0
 40
2.0
 40
2.0
 40
2.0
 40
3.0
 40
3.0
 40
3.0
 40
4.0
 40
4.0
 40
4.0
 40
5.0
 40
5.0
 40
5.0
 40
6.0
 40
6.0
 40
6.0
 40
7.0
 40
7.0
 40
7.0
 40
8.0
 40
8.0
 40
8.0
 40
9.0
 40
9.0
 40
9.0
 40
10.0
 40
10.0
 40
10.0
 40
11.0
 40
11.0
 40
11.0
 40
12.0
 40
12.0
 40
12.0
 40
13.0
 40
13.0
 40
13.0
 40
14.0
 40
14.0
 40
14.0
 40
15.0
 40
15.0
 40
15.0
 40
16.0
 40
16.0
 40
16.0
 40
17.0
 40
17.0
 40
17.0
 40
18.0
 40
18.0
 40
18.0
 40
19.0
 40
19.0
 40
19.0
 40
20.0
 40
20.0
 40
20.0
 40
21.0
 40
21.0
 40
21.0
 40
22.0
 40
22.0
 40
22.0
 40
23.0
 40
23.0
 40
23.0
 40
24.0
 40
24.0
 40
24.0
 40
25.0
 40
25.0
 40
25.0
 40
26.0
 40
26.0
 40
26.0
 40
27.0
 40
27.0
 40
27.0
 40
28.0
 40
28.0
 40
28.0
 40
29.0
 40
29.0
 40
29.0
 40
30.0
 40
30.0
 40
30.0
 40
31.0
 40
31.0
 40
31.0
 40
32.0
 40
32.0
 40
32.0
 40
33.0
 40
33.0
 40
33.0
 40
34.0
 40
34.0
 40
34.0
 40
35.0
 40
35.0
 40
35.0
 40
36.0
 40
36.0
 40
36.0
 40
37.0
 40
37.0
 40
37.0
 40
38.0
 40
38.0
 40
38.0
 40
39.0
 40
39.0
 40
39.0
 40
40.0
 40
40.0
 40
40.0
 40
41.0
 40
41.0
 40
41.0
 40
42.0
 40
42.0
 40
42.0
 40
43.0
 40
43.0
 40
43.0
 40
44.0
 40
44.0
 40
44.0
 40
45.0
 40
45.0
 40
45.0
 40
46.0
 40
46.0
 40
46.0
 40
47.0
 40
47.0
 40
47.0
 40
48.0
 40
48.0
 40
48.0
 40
49.0
 40
49.0
 40
49.0
 40
50.0
 40
50.0
 40
50.0
 40
51.0
 40
51.0
 40
51.0
 40
52.0
 40
52.0
 40
52.0
 40
53.0
 40
53.0
 40
53.0
 40
54.0
 40
54.0
 40
54.0
 40
55.0
 40
55.0
 40
55.0
 40
56.0
 40
56.0
 40
56.0
 40
57.0
 40
57.0
 40
57.0
 40
58.0
 40
58.0
 40
58.0
 40
59.0
 40
59.0
 40
59.0
 40
60.0
 40
60.0
 40
60.0
 40
61.0
 40
61.0
 40
61.0
 40
62.0
 40
62.0
 40
62.0
 40
63.0
 40
63.0
 40
63.0
 40
64.0
 40
64.0
 40
64.0
 40
65.0
 40
65.0
 40
65.0
 40
66.0
 40
66.0
 40
66.0
 40
67.0
 40
67.0
 40
67.0
 40
68.0
 40
68.0
 40
68.0
 40
69.0
 40
69.0
 40
69.0
 40
70.0
 40
70.0
 40
70.0
 40
71.0
 40
71.0
 40
71.0
 40
72.0
 40
72.0
 40
72.0
 40
72.0
 10
28.40176329483107
 20
-13.64444393581814
 30
0.0
 10
28.40232357829149
 20
-13.64444393581814
 30
0.0
 10
28.40277777777778
 20
-13.64398973633186
 30
0.0
 10
28.40277777777778
 20
-13.64342945287144
 30
0.0
 10
28.40277777777778
 20
-13.64342945287144
 30
0.0
 10
28.40277777777778
 20
-13.11111111111111
 30
0.0
 10
28.40277777777778
 20
-13.11111111111111
 30
0.0
 10
28.40277777777778
 20
-13.11111111111111
 30
0.0
 10
28.39583333333333
 20
-12.38194444444444
 30
0.0
 10
28.39583333333333
 20
-12.38194444444444
 30
0.0
 10
28.41053941514757
 20
-12.39493052164713
 30
0.0
 10
28.39583333333333
 20
-12.38194444444444
 30
0.0
 10
28.39583333333333
 20
-12.38194444444444
 30
0.0
 10
28.39583333333333
 20
-12.38194444444444
 30
0.0
 10
27.50694444444444
 20
-12.38194444444444
 30
0.0
 10
27.50694444444444
 20
-12.38194444444444
 30
0.0
 10
27.50694444444444
 20
-12.38194444444444
 30
0.0
 10
27.50694444444444
 20
-12.38194444444444
 30
0.0
 10
27.50694444444444
 20
-12.38194444444444
 30
0.0
 10
27.50694444444444
 20
-12.38194444444444
 30
0.0
 10
26.8125
 20
-12.38194444444444
 30
0.0
 10
26.8125
 20
-12.38194444444444
 30
0.0
 10
26.8125
 20
-12.38194444444444
 30
0.0
 10
25.46527777777778
 20
-12.64583333333333
 30
0.0
 10
25.46527777777778
 20
-12.64583333333333
 30
0.0
 10
25.46527777777778
 20
-12.64583333333333
 30
0.0
 10
24.11805555555555
 20
-12.38194444444444
 30
0.0
 10
24.11805555555555
 20
-12.38194444444444
 30
0.0
 10
24.11805555555555
 20
-12.38194444444444
 30
0.0
 10
22.49305555555555
 20
-12.38194444444444
 30
0.0
 10
22.49305555555555
 20
-12.38194444444444
 30
0.0
 10
22.49204578538926
 20
-12.38194954429378
 30
0.0
 10
22.49323619051933
 20
-12.64682682858097
 30
0.0
 10
22.49305555555555
 20
-12.64583333333333
 30
0.0
 10
22.49305555555555
 20
-12.64583333333333
 30
0.0
 10
22.49305555555555
 20
-12.64583333333333
 30
0.0
 10
22.49305555555555
 20
-12.64583333333333
 30
0.0
 10
22.49305555555555
 20
-12.64583333333333
 30
0.0
 10
22.5
 20
-13.11111111111111
 30
0.0
 10
22.5
 20
-13.11111111111111
 30
0.0
 10
22.5
 20
-13.11111111111111
 30
0.0
 10
22.5
 20
-13.64342945287144
 30
0.0
 10
22.5
 20
-13.64342945287144
 30
0.0
 10
22.5
 20
-13.64398973633186
 30
0.0
 10
22.50045419948628
 20
-13.64444393581814
 30
0.0
 10
22.5010144829467
 20
-13.64444393581814
 30
0.0
 10
22.5010144829467
 20
-13.64444393581814
 30
0.0
 10
22.58613354765225
 20
-13.64444393581814
 30
0.0
 10
22.58613354765225
 20
-13.64444393581814
 30
0.0
 10
22.58669383111267
 20
-13.64444393581814
 30
0.0
 10
22.58714803059896
 20
-13.64489813530443
 30
0.0
 10
22.58714803059896
 20
-13.64545841876485
 30
0.0
 10
22.58714803059896
 20
-13.64545841876485
 30
0.0
 10
22.58714803059896
 20
-14.17676312528897
 30
0.0
 10
22.58714803059896
 20
-14.17676312528897
 30
0.0
 10
22.58714803059896
 20
-14.17732340874939
 30
0.0
 10
22.58669383111267
 20
-14.17777760823568
 30
0.0
 10
22.58613354765225
 20
-14.17777760823568
 30
0.0
 10
22.58613354765225
 20
-14.17777760823568
 30
0.0
 10
22.5010144829467
 20
-14.17777760823568
 30
0.0
 10
22.5010144829467
 20
-14.17777760823568
 30
0.0
 10
22.50045419948628
 20
-14.17777760823568
 30
0.0
 10
22.5
 20
-14.17823180772196
 30
0.0
 10
22.5
 20
-14.17879209118238
 30
0.0
 10
22.5
 20
-14.17879209118238
 30
0.0
 10
22.5
 20
-14.71009679770651
 30
0.0
 10
22.5
 20
-14.71009679770651
 30
0.0
 10
22.5
 20
-14.71065708116693
 30
0.0
 10
22.50045419948628
 20
-14.71111128065321
 30
0.0
 10
22.5010144829467
 20
-14.71111128065321
 30
0.0
 10
22.5010144829467
 20
-14.71111128065321
 30
0.0
 10
22.58613354765225
 20
-14.71111128065321
 30
0.0
 10
22.58613354765225
 20
-14.71111128065321
 30
0.0
 10
22.58669383111267
 20
-14.71111128065321
 30
0.0
 10
22.58714803059896
 20
-14.7115654801395
 30
0.0
 10
22.58714803059896
 20
-14.71212576359992
 30
0.0
 10
22.58714803059896
 20
-14.71212576359992
 30
0.0
 10
22.58714803059896
 20
-15.24342962241354
 30
0.0
 10
22.58714803059896
 20
-15.24342962241354
 30
0.0
 10
22.58714803059896
 20
-15.24398990587396
 30
0.0
 10
22.58669383111267
 20
-15.24444410536024
 30
0.0
 10
22.58613354765225
 20
-15.24444410536024
 30
0.0
 10
22.58613354765225
 20
-15.24444410536024
 30
0.0
 10
22.5010144829467
 20
-15.24444410536024
 30
0.0
 10
22.5010144829467
 20
-15.24444410536024
 30
0.0
 10
22.50045419948628
 20
-15.24444410536024
 30
0.0
 10
22.5
 20
-15.24489830484653
 30
0.0
 10
22.5
 20
-15.24545858830695
 30
0.0
 10
22.5
 20
-15.24545858830695
 30
0.0
 10
22.5
 20
-15.77676329483107
 30
0.0
 10
22.5
 20
-15.77676329483107
 30
0.0
 10
22.5
 20
-15.77732357829149
 30
0.0
 10
22.50045419948628
 20
-15.77777777777778
 30
0.0
 10
22.5010144829467
 20
-15.77777777777778
 30
0.0
 10
22.5010144829467
 20
-15.77777777777778
 30
0.0
 10
23.47358132868524
 20
-15.77777777777778
 30
0.0
 10
23.47358132868524
 20
-15.77777777777778
 30
0.0
 10
23.47414161214566
 20
-15.77777777777778
 30
0.0
 10
23.47459581163194
 20
-15.77732357829149
 30
0.0
 10
23.47459581163194
 20
-15.77676329483107
 30
0.0
 10
23.47459581163194
 20
-15.77676329483107
 30
0.0
 10
23.47459581163194
 20
-15.71579974092197
 30
0.0
 10
23.47459581163194
 20
-15.71579974092197
 30
0.0
 10
23.47459581163194
 20
-15.71523945746167
 30
0.0
 10
23.47505001111813
 20
-15.71478525797551
 30
0.0
 10
23.47561029457842
 20
-15.71478525797551
 30
0.0
 10
23.47561029457842
 20
-15.71478525797551
 30
0.0
 10
24.44818053115922
 20
-15.71478525797526
 30
0.0
 10
24.44818053115922
 20
-15.71478525797526
 30
0.0
 10
24.44874081461962
 20
-15.71478525797526
 30
0.0
 10
24.4491950141059
 20
-15.71523945746154
 30
0.0
 10
24.4491950141059
 20
-15.71579974092194
 30
0.0
 10
24.4491950141059
 20
-15.71579974092194
 30
0.0
 10
24.4491950141059
 20
-15.77676329483107
 30
0.0
 10
24.4491950141059
 20
-15.77676329483107
 30
0.0
 10
24.4491950141059
 20
-15.77732357829137
 30
0.0
 10
24.44964921359209
 20
-15.77777777777752
 30
0.0
 10
24.45020949705238
 20
-15.77777777777752
 30
0.0
 10
24.45020949705238
 20
-15.77777777777752
 30
0.0
 10
25.11630865073387
 20
-15.77777777777778
 30
0.0
 10
25.11630865073387
 20
-15.77777777777778
 30
0.0
 10
25.11686893419427
 20
-15.77777777777778
 30
0.0
 10
25.11732313368055
 20
-15.77732357829152
 30
0.0
 10
25.11732313368055
 20
-15.7767632948311
 30
0.0
 10
25.11732313368055
 20
-15.7767632948311
 30
0.0
 10
25.11732313368055
 20
-15.71579974092197
 30
0.0
 10
25.11732313368055
 20
-15.71579974092197
 30
0.0
 10
25.11732313368055
 20
-15.71523945746167
 30
0.0
 10
25.11777733316674
 20
-15.71478525797551
 30
0.0
 10
25.11833761662703
 20
-15.71478525797551
 30
0.0
 10
25.11833761662703
 20
-15.71478525797551
 30
0.0
 10
25.78444016115054
 20
-15.71478525797526
 30
0.0
 10
25.78444016115054
 20
-15.71478525797526
 30
0.0
 10
25.78500044461094
 20
-15.71478525797526
 30
0.0
 10
25.78545464409722
 20
-15.71523945746152
 30
0.0
 10
25.78545464409722
 20
-15.71579974092194
 30
0.0
 10
25.78545464409722
 20
-15.71579974092194
 30
0.0
 10
25.78545464409722
 20
-15.77676329483105
 30
0.0
 10
25.78545464409722
 20
-15.77676329483105
 30
0.0
 10
25.78545464409722
 20
-15.77732357829137
 30
0.0
 10
25.7859088435834
 20
-15.77777777777752
 30
0.0
 10
25.7864691270437
 20
-15.77777777777752
 30
0.0
 10
25.7864691270437
 20
-15.77777777777752
 30
0.0
 10
26.45256828072519
 20
-15.77777777777778
 30
0.0
 10
26.45256828072519
 20
-15.77777777777778
 30
0.0
 10
26.45312856418559
 20
-15.77777777777778
 30
0.0
 10
26.45358276367188
 20
-15.77732357829152
 30
0.0
 10
26.45358276367188
 20
-15.7767632948311
 30
0.0
 10
26.45358276367188
 20
-15.7767632948311
 30
0.0
 10
26.45358276367188
 20
-15.71579974092197
 30
0.0
 10
26.45358276367188
 20
-15.71579974092197
 30
0.0
 10
26.45358276367188
 20
-15.71523945746167
 30
0.0
 10
26.45403696315806
 20
-15.71478525797551
 30
0.0
 10
26.45459724661835
 20
-15.71478525797551
 30
0.0
 10
26.45459724661835
 20
-15.71478525797551
 30
0.0
 10
27.42716748319915
 20
-15.71478525797526
 30
0.0
 10
27.42716748319915
 20
-15.71478525797526
 30
0.0
 10
27.42772776665955
 20
-15.71478525797526
 30
0.0
 10
27.42818196614583
 20
-15.71523945746154
 30
0.0
 10
27.42818196614583
 20
-15.71579974092194
 30
0.0
 10
27.42818196614583
 20
-15.71579974092194
 30
0.0
 10
27.42818196614583
 20
-15.77676329483105
 30
0.0
 10
27.42818196614583
 20
-15.77676329483105
 30
0.0
 10
27.42818196614583
 20
-15.77732357829137
 30
0.0
 10
27.42863616563201
 20
-15.77777777777752
 30
0.0
 10
27.42919644909231
 20
-15.77777777777752
 30
0.0
 10
27.42919644909231
 20
-15.77777777777752
 30
0.0
 10
28.40176329483107
 20
-15.77777777777778
 30
0.0
 10
28.40176329483107
 20
-15.77777777777778
 30
0.0
 10
28.40232357829149
 20
-15.77777777777778
 30
0.0
 10
28.40277777777778
 20
-15.77732357829149
 30
0.0
 10
28.40277777777778
 20
-15.77676329483107
 30
0.0
 10
28.40277777777778
 20
-15.77676329483107
 30
0.0
 10
28.40277777777778
 20
-15.24545858830695
 30
0.0
 10
28.40277777777778
 20
-15.24545858830695
 30
0.0
 10
28.40277777777778
 20
-15.24489830484653
 30
0.0
 10
28.40232357829149
 20
-15.24444410536024
 30
0.0
 10
28.40176329483107
 20
-15.24444410536024
 30
0.0
 10
28.40176329483107
 20
-15.24444410536024
 30
0.0
 10
28.31664423012552
 20
-15.24444410536024
 30
0.0
 10
28.31664423012552
 20
-15.24444410536024
 30
0.0
 10
28.3160839466651
 20
-15.24444410536024
 30
0.0
 10
28.31562974717882
 20
-15.24398990587396
 30
0.0
 10
28.31562974717882
 20
-15.24342962241354
 30
0.0
 10
28.31562974717882
 20
-15.24342962241354
 30
0.0
 10
28.31562974717882
 20
-14.71212576359992
 30
0.0
 10
28.31562974717882
 20
-14.71212576359992
 30
0.0
 10
28.31562974717882
 20
-14.7115654801395
 30
0.0
 10
28.3160839466651
 20
-14.71111128065321
 30
0.0
 10
28.31664423012552
 20
-14.71111128065321
 30
0.0
 10
28.31664423012552
 20
-14.71111128065321
 30
0.0
 10
28.40176329483107
 20
-14.71111128065321
 30
0.0
 10
28.40176329483107
 20
-14.71111128065321
 30
0.0
 10
28.40232357829149
 20
-14.71111128065321
 30
0.0
 10
28.40277777777778
 20
-14.71065708116693
 30
0.0
 10
28.40277777777778
 20
-14.71009679770651
 30
0.0
 10
28.40277777777778
 20
-14.71009679770651
 30
0.0
 10
28.40277777777778
 20
-14.17879209118238
 30
0.0
 10
28.40277777777778
 20
-14.17879209118238
 30
0.0
 10
28.40277777777778
 20
-14.17823180772196
 30
0.0
 10
28.40232357829149
 20
-14.17777760823568
 30
0.0
 10
28.40176329483107
 20
-14.17777760823568
 30
0.0
 10
28.40176329483107
 20
-14.17777760823568
 30
0.0
 10
28.31664423012552
 20
-14.17777760823568
 30
0.0
 10
28.31664423012552
 20
-14.17777760823568
 30
0.0
 10
28.3160839466651
 20
-14.17777760823568
 30
0.0
 10
28.31562974717882
 20
-14.17732340874939
 30
0.0
 10
28.31562974717882
 20
-14.17676312528897
 30
0.0
 10
28.31562974717882
 20
-14.17676312528897
 30
0.0
 10
28.31562974717882
 20
-13.64545841876485
 30
0.0
 10
28.31562974717882
 20
-13.64545841876485
 30
0.0
 10
28.31562974717882
 20
-13.64489813530443
 30
0.0
 10
28.3160839466651
 20
-13.64444393581814
 30
0.0
 10
28.31664423012552
 20
-13.64444393581814
 30
0.0
 10
28.31664423012552
 20
-13.64444393581814
 30
0.0
 10
28.40176329483107
 20
-13.64444393581814
 30
0.0
 10
28.40176329483107
 20
-13.64444393581814
 30
0.0
  0
ENDBLK
  5
434
330
431
100
AcDbEntity
  8
0
100
AcDbBlockEnd
  0
BLOCK
  5
438
330
436
100
AcDbEntity
  8
0
100
AcDbBlockBegin
  2
block 23
 70
     0
 10
0.0
 20
0.0
 30
0.0
  3
block 23
  1

  0
POLYLINE
  5
43A
330
436
100
AcDbEntity
  8
Layer 1
 62
     7
420
 16777215
370
    30
100
AcDb2dPolyline
 66
     1
 10
0.0
 20
0.0
 30
0.0
  0
VERTEX
  5
43B
330
43A
100
AcDbEntity
  8
Layer 1
 62
     7
420
 16777215
370
    30
100
AcDbVertex
100
AcDb2dVertex
 10
21.78865304376543
 20
-15.85453911799189
 30
0.0
  0
VERTEX
  5
43C
330
43A
100
AcDbEntity
  8
Layer 1
 62
     7
420
 16777215
370
    30
100
AcDbVertex
100
AcDb2dVertex
 10
21.78719544553499
 20
-16.34447564252896
 30
0.0
  0
VERTEX
  5
43D
330
43A
100
AcDbEntity
  8
Layer 1
 62
     7
420
 16777215
370
    30
100
AcDbVertex
100
AcDb2dVertex
 10
21.72059469271506
 20
-16.34427750025015
 30
0.0
  0
VERTEX
  5
43E
330
43A
100
AcDbEntity
  8
Layer 1
 62
     7
420
 16777215
370
    30
100
AcDbVertex
100
AcDb2dVertex
 10
21.71894188045103
 20
-16.8998305185107
 30
0.0
  0
VERTEX
  5
43F
330
43A
100
AcDbEntity
  8
Layer 1
 62
     7
420
 16777215
370
    30
100
AcDbVertex
100
AcDb2dVertex
 10
21.78554263327093
 20
-16.90002866078956
 30
0.0
  0
VERTEX
  5
440
330
43A
100
AcDbEntity
  8
Layer 1
 62
     7
420
 16777215
370
    30
100
AcDbVertex
100
AcDb2dVertex
 10
21.78388982128712
 20
-17.45558158486061
 30
0.0
  0
VERTEX
  5
441
330
43A
100
AcDbEntity
  8
Layer 1
 62
     7
420
 16777215
370
    30
100
AcDbVertex
100
AcDb2dVertex
 10
21.71728906846723
 20
-17.45538344258176
 30
0.0
  0
VERTEX
  5
442
330
43A
100
AcDbEntity
  8
Layer 1
 62
     7
420
 16777215
370
    30
100
AcDbVertex
100
AcDb2dVertex
 10
21.71563625592299
 20
-18.01093655503188
 30
0.0
  0
VERTEX
  5
443
330
43A
100
AcDbEntity
  8
Layer 1
 62
     7
420
 16777215
370
    30
100
AcDbVertex
100
AcDb2dVertex
 10
21.78223700874287
 20
-18.01113469731073
 30
0.0
  0
VERTEX
  5
444
330
43A
100
AcDbEntity
  8
Layer 1
 62
     7
420
 16777215
370
    30
100
AcDbVertex
100
AcDb2dVertex
 10
21.78077941049489
 20
-18.50107122773463
 30
0.0
  0
VERTEX
  5
445
330
43A
100
AcDbEntity
  8
Layer 1
 62
     7
420
 16777215
370
    30
100
AcDbVertex
100
AcDb2dVertex
 10
21.21689299798042
 20
-18.4993936229922
 30
0.0
  0
VERTEX
  5
446
330
43A
100
AcDbEntity
  8
Layer 1
 62
     7
420
 16777215
370
    30
100
AcDbVertex
100
AcDb2dVertex
 10
21.21669778424459
 20
-18.56501001663926
 30
0.0
  0
VERTEX
  5
447
330
43A
100
AcDbEntity
  8
Layer 1
 62
     7
420
 16777215
370
    30
100
AcDbVertex
100
AcDb2dVertex
 10
20.65281137173014
 20
-18.56333241189681
 30
0.0
  0
VERTEX
  5
448
330
43A
100
AcDbEntity
  8
Layer 1
 62
     7
420
 16777215
370
    30
100
AcDbVertex
100
AcDb2dVertex
 10
20.653006585466
 20
-18.49771601824972
 30
0.0
  0
VERTEX
  5
449
330
43A
100
AcDbEntity
  8
Layer 1
 62
     7
420
 16777215
370
    30
100
AcDbVertex
100
AcDb2dVertex
 10
20.08912026855392
 20
-18.49603841379169
 30
0.0
  0
VERTEX
  5
44A
330
43A
100
AcDbEntity
  8
Layer 1
 62
     7
420
 16777215
370
    30
100
AcDbVertex
100
AcDb2dVertex
 10
20.08892505481814
 20
-18.56165480743875
 30
0.0
  0
VERTEX
  5
44B
330
43A
100
AcDbEntity
  8
Layer 1
 62
     7
420
 16777215
370
    30
100
AcDbVertex
100
AcDb2dVertex
 10
19.52503854670125
 20
-18.55997720241188
 30
0.0
  0
VERTEX
  5
44C
330
43A
100
AcDbEntity
  8
Layer 1
 62
     7
420
 16777215
370
    30
100
AcDbVertex
100
AcDb2dVertex
 10
19.52523376043708
 20
-18.49436080876477
 30
0.0
  0
VERTEX
  5
44D
330
43A
100
AcDbEntity
  8
Layer 1
 62
     7
420
 16777215
370
    30
100
AcDbVertex
100
AcDb2dVertex
 10
18.96134744352503
 20
-18.49268320430679
 30
0.0
  0
VERTEX
  5
44E
330
43A
100
AcDbEntity
  8
Layer 1
 62
     7
420
 16777215
370
    30
100
AcDbVertex
100
AcDb2dVertex
 10
18.96280504177298
 20
-18.00274667388284
 30
0.0
  0
VERTEX
  5
44F
330
43A
100
AcDbEntity
  8
Layer 1
 62
     7
420
 16777215
370
    30
100
AcDbVertex
100
AcDb2dVertex
 10
19.02940569301533
 20
-18.00294481585946
 30
0.0
  0
VERTEX
  5
450
330
43A
100
AcDbEntity
  8
Layer 1
 62
     7
420
 16777215
370
    30
100
AcDbVertex
100
AcDb2dVertex
 10
19.03105850555961
 20
-17.44739170340934
 30
0.0
  0
VERTEX
  5
451
330
43A
100
AcDbEntity
  8
Layer 1
 62
     7
420
 16777215
370
    30
100
AcDbVertex
100
AcDb2dVertex
 10
18.96445785431726
 20
-17.44719356143269
 30
0.0
  0
VERTEX
  5
452
330
43A
100
AcDbEntity
  8
Layer 1
 62
     7
420
 16777215
370
    30
100
AcDbVertex
100
AcDb2dVertex
 10
18.96611066630104
 20
-16.89164063736164
 30
0.0
  0
VERTEX
  5
453
330
43A
100
AcDbEntity
  8
Layer 1
 62
     7
420
 16777215
370
    30
100
AcDbVertex
100
AcDb2dVertex
 10
19.03271131754339
 20
-16.89183877933829
 30
0.0
  0
VERTEX
  5
454
330
43A
100
AcDbEntity
  8
Layer 1
 62
     7
420
 16777215
370
    30
100
AcDbVertex
100
AcDb2dVertex
 10
19.03436412980742
 20
-16.33628576107771
 30
0.0
  0
VERTEX
  5
455
330
43A
100
AcDbEntity
  8
Layer 1
 62
     7
420
 16777215
370
    30
100
AcDbVertex
100
AcDb2dVertex
 10
18.9677634785651
 20
-16.33608761910109
 30
0.0
  0
VERTEX
  5
456
330
43A
100
AcDbEntity
  8
Layer 1
 62
     7
420
 16777215
370
    30
100
AcDbVertex
100
AcDb2dVertex
 10
18.96922107679555
 20
-15.84615109456402
 30
0.0
  0
VERTEX
  5
457
330
43A
100
AcDbEntity
  8
Layer 1
 62
     7
420
 16777215
370
    30
100
AcDbVertex
100
AcDb2dVertex
 10
19.53310739370762
 20
-15.84782869902203
 30
0.0
  0
VERTEX
  5
458
330
43A
100
AcDbEntity
  8
Layer 1
 62
     7
420
 16777215
370
    30
100
AcDbVertex
100
AcDb2dVertex
 10
19.53330260774118
 20
-15.78221220529852
 30
0.0
  0
VERTEX
  5
459
330
43A
100
AcDbEntity
  8
Layer 1
 62
     7
420
 16777215
370
    30
100
AcDbVertex
100
AcDb2dVertex
 10
20.09718911585802
 20
-15.78388981032539
 30
0.0
  0
VERTEX
  5
45A
330
43A
100
AcDbEntity
  8
Layer 1
 62
     7
420
 16777215
370
    30
100
AcDbVertex
100
AcDb2dVertex
 10
20.09699390182446
 20
-15.84950630404892
 30
0.0
  0
VERTEX
  5
45B
330
43A
100
AcDbEntity
  8
Layer 1
 62
     7
420
 16777215
370
    30
100
AcDbVertex
100
AcDb2dVertex
 10
20.66088021873654
 20
-15.85118390850696
 30
0.0
  0
VERTEX
  5
45C
330
43A
100
AcDbEntity
  8
Layer 1
 62
     7
420
 16777215
370
    30
100
AcDbVertex
100
AcDb2dVertex
 10
20.66107543277005
 20
-15.78556741478345
 30
0.0
  0
VERTEX
  5
45D
330
43A
100
AcDbEntity
  8
Layer 1
 62
     7
420
 16777215
370
    30
100
AcDbVertex
100
AcDb2dVertex
 10
21.22496184528452
 20
-15.7872450195259
 30
0.0
  0
VERTEX
  5
45E
330
43A
100
AcDbEntity
  8
Layer 1
 62
     7
420
 16777215
370
    30
100
AcDbVertex
100
AcDb2dVertex
 10
21.22476663125099
 20
-15.85286151324941
 30
0.0
  0
VERTEX
  5
45F
330
43A
100
AcDbEntity
  8
Layer 1
 62
     7
420
 16777215
370
    30
100
AcDbVertex
100
AcDb2dVertex
 10
21.78865304376543
 20
-15.85453911799189
 30
0.0
  0
SEQEND
  5
460
330
43A
100
AcDbEntity
  8
Layer 1
 62
     7
420
 16777215
370
    30
  0
ENDBLK
  5
439
330
436
100
AcDbEntity
  8
0
100
AcDbBlockEnd
  0
BLOCK
  5
463
330
461
100
AcDbEntity
  8
0
100
AcDbBlockBegin
  2
block 24
 70
     0
 10
0.0
 20
0.0
 30
0.0
  3
block 24
  1

  0
SPLINE
  5
465
330
461
100
AcDbEntity
  8
Layer 1
 62
     7
420
 16777215
370
    60
100
AcDbSpline
210
0.0
220
0.0
230
1.0
 70
     8
 71
     3
 72
    80
 73
    76
 74
     0
 42
0.0000000001
 43
0.0000000001
 12
1.0
 22
0.0
 32
0.0
 13
1.0
 23
0.0
 33
0.0
 40
0.0
 40
0.0
 40
0.0
 40
0.0
 40
1.0
 40
1.0
 40
1.0
 40
2.0
 40
2.0
 40
2.0
 40
3.0
 40
3.0
 40
3.0
 40
4.0
 40
4.0
 40
4.0
 40
5.0
 40
5.0
 40
5.0
 40
6.0
 40
6.0
 40
6.0
 40
7.0
 40
7.0
 40
7.0
 40
8.0
 40
8.0
 40
8.0
 40
9.0
 40
9.0
 40
9.0
 40
10.0
 40
10.0
 40
10.0
 40
11.0
 40
11.0
 40
11.0
 40
12.0
 40
12.0
 40
12.0
 40
13.0
 40
13.0
 40
13.0
 40
14.0
 40
14.0
 40
14.0
 40
15.0
 40
15.0
 40
15.0
 40
16.0
 40
16.0
 40
16.0
 40
17.0
 40
17.0
 40
17.0
 40
18.0
 40
18.0
 40
18.0
 40
19.0
 40
19.0
 40
19.0
 40
20.0
 40
20.0
 40
20.0
 40
21.0
 40
21.0
 40
21.0
 40
22.0
 40
22.0
 40
22.0
 40
23.0
 40
23.0
 40
23.0
 40
24.0
 40
24.0
 40
24.0
 40
25.0
 40
25.0
 40
25.0
 40
25.0
 10
24.45115523875307
 20
-14.3862662612976
 30
0.0
 10
24.45064028387002
 20
-14.38383588300012
 30
0.0
 10
24.45007386296389
 20
-14.3814729794419
 30
0.0
 10
24.44945587781717
 20
-14.37910994711494
 30
0.0
 10
24.44796257740856
 20
-14.37323642558906
 30
0.0
 10
24.44626321647267
 20
-14.36756545704924
 30
0.0
 10
24.44451238951377
 20
-14.36196196324861
 30
0.0
 10
24.4417832170293
 20
-14.35332043219185
 30
0.0
 10
24.43874505197151
 20
-14.34494892886058
 30
0.0
 10
24.43560385665008
 20
-14.33678010728398
 30
0.0
 10
24.43138128553942
 20
-14.32591075091611
 30
0.0
 10
24.42679835404998
 20
-14.31551384649121
 30
0.0
 10
24.42195789601025
 20
-14.30552217680727
 30
0.0
 10
24.41593303191765
 20
-14.29310000005714
 30
0.0
 10
24.40954780744629
 20
-14.28128548226601
 30
0.0
 10
24.40285349218394
 20
-14.27007849466483
 30
0.0
 10
24.39482037279974
 20
-14.25664368175234
 30
0.0
 10
24.38637532879607
 20
-14.24408642675533
 30
0.0
 10
24.37756982619599
 20
-14.23233938370332
 30
0.0
 10
24.36721945894679
 20
-14.21856693955753
 30
0.0
 10
24.35645716707811
 20
-14.20587473508213
 30
0.0
 10
24.34533441661304
 20
-14.19419516676938
 30
0.0
 10
24.332409373166
 20
-14.18069275034903
 30
0.0
 10
24.31907230688196
 20
-14.1685407300931
 30
0.0
 10
24.30542634624215
 20
-14.15760377021724
 30
0.0
 10
24.28966910004705
 20
-14.14497904048118
 30
0.0
 10
24.27349983101488
 20
-14.13404208060529
 30
0.0
 10
24.25712469789071
 20
-14.12452299163303
 30
0.0
 10
24.23822625637409
 20
-14.1135185570181
 30
0.0
 10
24.21901892050176
 20
-14.10440444524968
 30
0.0
 10
24.19965708834275
 20
-14.09677567912409
 30
0.0
 10
24.17741158741261
 20
-14.08806667332823
 30
0.0
 10
24.15490855993211
 20
-14.08138293985722
 30
0.0
 10
24.13230250218799
 20
-14.07638710501523
 30
0.0
 10
24.10640085105332
 20
-14.07064866173613
 30
0.0
 10
24.0803962678726
 20
-14.06707044026075
 30
0.0
 10
24.05434012045124
 20
-14.0651801174141
 30
0.0
 10
24.02447342475625
 20
-14.06301976684201
 30
0.0
 10
23.99481269137105
 20
-14.06376237527911
 30
0.0
 10
23.96494599567608
 20
-14.06653038480974
 30
0.0
 10
23.93945631826962
 20
-14.06889328836794
 30
0.0
 10
23.91396664086316
 20
-14.07294396178663
 30
0.0
 10
23.88863141063462
 20
-14.07915511454601
 30
0.0
 10
23.86654035688233
 20
-14.08455605536033
 30
0.0
 10
23.84455228428492
 20
-14.09164476603501
 30
0.0
 10
23.82282168912909
 20
-14.10069140306422
 30
0.0
 10
23.8039232967213
 20
-14.10859032568394
 30
0.0
 10
23.78517935149141
 20
-14.11804193991705
 30
0.0
 10
23.76674439883489
 20
-14.12924892751817
 30
0.0
 10
23.75078114122124
 20
-14.13903817298435
 30
0.0
 10
23.73502389502615
 20
-14.15017755707797
 30
0.0
 10
23.71973008858226
 20
-14.16293736506112
 30
0.0
 10
23.70644453743005
 20
-14.17394179967606
 30
0.0
 10
23.69351949398305
 20
-14.1862288981791
 30
0.0
 10
23.68100637515546
 20
-14.19979878933853
 30
0.0
 10
23.67024408328676
 20
-14.21147835765153
 30
0.0
 10
23.65979071032825
 20
-14.22417056212665
 30
0.0
 10
23.64980082622977
 20
-14.23794300627237
 30
0.0
 10
23.64130426709428
 20
-14.24962257458535
 30
0.0
 10
23.63316816655518
 20
-14.26211222607435
 30
0.0
 10
23.6254440151899
 20
-14.27547956424784
 30
0.0
 10
23.61900722647792
 20
-14.28655147360188
 30
0.0
 10
23.6128794057849
 20
-14.29823104191488
 30
0.0
 10
23.60716353426566
 20
-14.31045066567865
 30
0.0
 10
23.60258052911306
 20
-14.32023991114475
 30
0.0
 10
23.59825502595635
 20
-14.33043413381483
 30
0.0
 10
23.5941869756868
 20
-14.34096598771839
 30
0.0
 10
23.59120030120645
 20
-14.34879730683024
 30
0.0
 10
23.58841961359019
 20
-14.35683130769687
 30
0.0
 10
23.58584488828362
 20
-14.3651352075203
 30
0.0
 10
23.58424855761139
 20
-14.37033359534848
 30
0.0
 10
23.58270374207094
 20
-14.37559958668435
 30
0.0
 10
23.58136488884023
 20
-14.38106800223793
 30
0.0
 10
23.58090144908898
 20
-14.38295832508452
 30
0.0
 10
23.58043798478338
 20
-14.38484864793115
 30
0.0
 10
23.58002603560954
 20
-14.3868064455171
 30
0.0
  0
SPLINE
  5
466
330
461
100
AcDbEntity
  8
Layer 1
370
     0
100
AcDbSpline
210
0.0
220
0.0
230
1.0
 70
    11
 71
     3
 72
    17
 73
    13
 74
     0
 42
0.0000000001
 43
0.0000000001
 12
1.0
 22
0.0
 32
0.0
 13
1.0
 23
0.0
 33
0.0
 40
0.0
 40
0.0
 40
0.0
 40
0.0
 40
1.0
 40
1.0
 40
1.0
 40
2.0
 40
2.0
 40
2.0
 40
3.0
 40
3.0
 40
3.0
 40
4.0
 40
4.0
 40
4.0
 40
4.0
 10
24.00990048639636
 20
-14.06389732475754
 30
0.0
 10
24.09149348176136
 20
-14.06389732475754
 30
0.0
 10
24.15763763419899
 20
-14.15061588534551
 30
0.0
 10
24.15763763419899
 20
-14.25758871440692
 30
0.0
 10
24.15763763419899
 20
-14.36456154346837
 30
0.0
 10
24.09149348176136
 20
-14.45128023282503
 30
0.0
 10
24.00990048639636
 20
-14.45128023282503
 30
0.0
 10
23.92830749103144
 20
-14.45128023282503
 30
0.0
 10
23.86216333859382
 20
-14.36456154346837
 30
0.0
 10
23.86216333859382
 20
-14.25758871440692
 30
0.0
 10
23.86216333859382
 20
-14.15061588534551
 30
0.0
 10
23.92830749103144
 20
-14.06389732475754
 30
0.0
 10
24.00990048639636
 20
-14.06389732475754
 30
0.0
  0
HATCH
  5
467
330
461
100
AcDbEntity
  8
Layer 1
 62
     7
420
 16777215
100
AcDbHatch
 10
0.0
 20
0.0
 30
0.0
210
0.0
220
0.0
230
1.0
  2
SOLID
 70
     1
 71
     0
 91
        1
 92
        1
 93
        1
 72
     4
 94
        3
 73
     0
 74
     1
 95
       17
 96
       13
 40
0.0
 40
0.0
 40
0.0
 40
0.0
 40
1.0
 40
1.0
 40
1.0
 40
2.0
 40
2.0
 40
2.0
 40
3.0
 40
3.0
 40
3.0
 40
4.0
 40
4.0
 40
4.0
 40
4.0
 10
24.00990048639636
 20
-14.06389732475754
 10
24.09149348176136
 20
-14.06389732475754
 10
24.15763763419899
 20
-14.15061588534551
 10
24.15763763419899
 20
-14.25758871440692
 10
24.15763763419899
 20
-14.36456154346837
 10
24.09149348176136
 20
-14.45128023282503
 10
24.00990048639636
 20
-14.45128023282503
 10
23.92830749103144
 20
-14.45128023282503
 10
23.86216333859382
 20
-14.36456154346837
 10
23.86216333859382
 20
-14.25758871440692
 10
23.86216333859382
 20
-14.15061588534551
 10
23.92830749103144
 20
-14.06389732475754
 10
24.00990048639636
 20
-14.06389732475754
 97
        0
 97
        0
 75
     2
 76
     1
 98
        0
  0
POLYLINE
  5
468
330
461
100
AcDbEntity
  8
Layer 1
 62
     7
420
 16777215
370
    60
100
AcDb2dPolyline
 66
     1
 10
0.0
 20
0.0
 30
0.0
  0
VERTEX
  5
469
330
468
100
AcDbEntity
  8
Layer 1
 62
     7
420
 16777215
370
    60
100
AcDbVertex
100
AcDb2dVertex
 10
23.47394773602797
 20
-14.09866587320226
 30
0.0
  0
VERTEX
  5
46A
330
468
100
AcDbEntity
  8
Layer 1
 62
     7
420
 16777215
370
    60
100
AcDbVertex
100
AcDb2dVertex
 10
23.62168490838494
 20
-14.25758871440692
 30
0.0
  0
SEQEND
  5
46B
330
468
100
AcDbEntity
  8
Layer 1
 62
     7
420
 16777215
370
    60
  0
POLYLINE
  5
46C
330
461
100
AcDbEntity
  8
Layer 1
 62
     7
420
 16777215
370
    60
100
AcDb2dPolyline
 66
     1
 10
0.0
 20
0.0
 30
0.0
  0
VERTEX
  5
46D
330
46C
100
AcDbEntity
  8
Layer 1
 62
     7
420
 16777215
370
    60
100
AcDbVertex
100
AcDb2dVertex
 10
24.45537780986367
 20
-14.38471356968431
 30
0.0
  0
VERTEX
  5
46E
330
46C
100
AcDbEntity
  8
Layer 1
 62
     7
420
 16777215
370
    60
100
AcDbVertex
100
AcDb2dVertex
 10
24.625
 20
-14.26947083570611
 30
0.0
  0
SEQEND
  5
46F
330
46C
100
AcDbEntity
  8
Layer 1
 62
     7
420
 16777215
370
    60
  0
POLYLINE
  5
470
330
461
100
AcDbEntity
  8
Layer 1
 62
     7
420
 16777215
370
    60
100
AcDb2dPolyline
 66
     1
 10
0.0
 20
0.0
 30
0.0
  0
VERTEX
  5
471
330
470
100
AcDbEntity
  8
Layer 1
 62
     7
420
 16777215
370
    60
100
AcDbVertex
100
AcDb2dVertex
 10
24.39981542534378
 20
-14.24914973633645
 30
0.0
  0
VERTEX
  5
472
330
470
100
AcDbEntity
  8
Layer 1
 62
     7
420
 16777215
370
    60
100
AcDbVertex
100
AcDb2dVertex
 10
24.55177514425698
 20
-14.09718065632791
 30
0.0
  0
SEQEND
  5
473
330
470
100
AcDbEntity
  8
Layer 1
 62
     7
420
 16777215
370
    60
  0
POLYLINE
  5
474
330
461
100
AcDbEntity
  8
Layer 1
 62
     7
420
 16777215
370
    60
100
AcDb2dPolyline
 66
     1
 10
0.0
 20
0.0
 30
0.0
  0
VERTEX
  5
475
330
474
100
AcDbEntity
  8
Layer 1
 62
     7
420
 16777215
370
    60
100
AcDbVertex
100
AcDb2dVertex
 10
24.3104213005686
 20
-14.13728267084773
 30
0.0
  0
VERTEX
  5
476
330
474
100
AcDbEntity
  8
Layer 1
 62
     7
420
 16777215
370
    60
100
AcDbVertex
100
AcDb2dVertex
 10
24.42906423410962
 20
-13.94089074640659
 30
0.0
  0
SEQEND
  5
477
330
474
100
AcDbEntity
  8
Layer 1
 62
     7
420
 16777215
370
    60
  0
POLYLINE
  5
478
330
461
100
AcDbEntity
  8
Layer 1
 62
     7
420
 16777215
370
    60
100
AcDb2dPolyline
 66
     1
 10
0.0
 20
0.0
 30
0.0
  0
VERTEX
  5
479
330
478
100
AcDbEntity
  8
Layer 1
 62
     7
420
 16777215
370
    60
100
AcDbVertex
100
AcDb2dVertex
 10
24.20197423799014
 20
-14.08786399157336
 30
0.0
  0
VERTEX
  5
47A
330
478
100
AcDbEntity
  8
Layer 1
 62
     7
420
 16777215
370
    60
100
AcDbVertex
100
AcDb2dVertex
 10
24.2647973586785
 20
-13.85130257787341
 30
0.0
  0
SEQEND
  5
47B
330
478
100
AcDbEntity
  8
Layer 1
 62
     7
420
 16777215
370
    60
  0
POLYLINE
  5
47C
330
461
100
AcDbEntity
  8
Layer 1
 62
     7
420
 16777215
370
    60
100
AcDb2dPolyline
 66
     1
 10
0.0
 20
0.0
 30
0.0
  0
VERTEX
  5
47D
330
47C
100
AcDbEntity
  8
Layer 1
 62
     7
420
 16777215
370
    60
100
AcDbVertex
100
AcDb2dVertex
 10
24.08019020734529
 20
-14.03959302670854
 30
0.0
  0
VERTEX
  5
47E
330
47C
100
AcDbEntity
  8
Layer 1
 62
     7
420
 16777215
370
    60
100
AcDbVertex
100
AcDb2dVertex
 10
24.09872819026547
 20
-13.7902719337938
 30
0.0
  0
SEQEND
  5
47F
330
47C
100
AcDbEntity
  8
Layer 1
 62
     7
420
 16777215
370
    60
  0
POLYLINE
  5
480
330
461
100
AcDbEntity
  8
Layer 1
 62
     7
420
 16777215
370
    60
100
AcDb2dPolyline
 66
     1
 10
0.0
 20
0.0
 30
0.0
  0
VERTEX
  5
481
330
480
100
AcDbEntity
  8
Layer 1
 62
     7
420
 16777215
370
    60
100
AcDbVertex
100
AcDb2dVertex
 10
23.93919884082809
 20
-14.04465646505815
 30
0.0
  0
VERTEX
  5
482
330
480
100
AcDbEntity
  8
Layer 1
 62
     7
420
 16777215
370
    60
100
AcDbVertex
100
AcDb2dVertex
 10
23.92158778651921
 20
-13.79520029389657
 30
0.0
  0
SEQEND
  5
483
330
480
100
AcDbEntity
  8
Layer 1
 62
     7
420
 16777215
370
    60
  0
POLYLINE
  5
484
330
461
100
AcDbEntity
  8
Layer 1
 62
     7
420
 16777215
370
    60
100
AcDb2dPolyline
 66
     1
 10
0.0
 20
0.0
 30
0.0
  0
VERTEX
  5
485
330
484
100
AcDbEntity
  8
Layer 1
 62
     7
420
 16777215
370
    60
100
AcDbVertex
100
AcDb2dVertex
 10
23.82256421168754
 20
-14.07753469065619
 30
0.0
  0
VERTEX
  5
486
330
484
100
AcDbEntity
  8
Layer 1
 62
     7
420
 16777215
370
    60
100
AcDbVertex
100
AcDb2dVertex
 10
23.75788738110299
 20
-13.84178336013242
 30
0.0
  0
SEQEND
  5
487
330
484
100
AcDbEntity
  8
Layer 1
 62
     7
420
 16777215
370
    60
  0
POLYLINE
  5
488
330
461
100
AcDbEntity
  8
Layer 1
 62
     7
420
 16777215
370
    60
100
AcDb2dPolyline
 66
     1
 10
0.0
 20
0.0
 30
0.0
  0
VERTEX
  5
489
330
488
100
AcDbEntity
  8
Layer 1
 62
     7
420
 16777215
370
    60
100
AcDbVertex
100
AcDb2dVertex
 10
23.70242797773796
 20
-14.14700431280612
 30
0.0
  0
VERTEX
  5
48A
330
488
100
AcDbEntity
  8
Layer 1
 62
     7
420
 16777215
370
    60
100
AcDbVertex
100
AcDb2dVertex
 10
23.60530972615189
 20
-13.9312365791875
 30
0.0
  0
SEQEND
  5
48B
330
488
100
AcDbEntity
  8
Layer 1
 62
     7
420
 16777215
370
    60
  0
ENDBLK
  5
464
330
461
100
AcDbEntity
  8
0
100
AcDbBlockEnd
  0
BLOCK
  5
48E
330
48C
100
AcDbEntity
  8
0
100
AcDbBlockBegin
  2
block 25
 70
     0
 10
0.0
 20
0.0
 30
0.0
  3
block 25
  1

  0
SPLINE
  5
490
330
48C
100
AcDbEntity
  8
Layer 1
 62
     7
420
 16777215
370
    60
100
AcDbSpline
210
0.0
220
0.0
230
1.0
 70
     8
 71
     3
 72
    80
 73
    76
 74
     0
 42
0.0000000001
 43
0.0000000001
 12
1.0
 22
0.0
 32
0.0
 13
1.0
 23
0.0
 33
0.0
 40
0.0
 40
0.0
 40
0.0
 40
0.0
 40
1.0
 40
1.0
 40
1.0
 40
2.0
 40
2.0
 40
2.0
 40
3.0
 40
3.0
 40
3.0
 40
4.0
 40
4.0
 40
4.0
 40
5.0
 40
5.0
 40
5.0
 40
6.0
 40
6.0
 40
6.0
 40
7.0
 40
7.0
 40
7.0
 40
8.0
 40
8.0
 40
8.0
 40
9.0
 40
9.0
 40
9.0
 40
10.0
 40
10.0
 40
10.0
 40
11.0
 40
11.0
 40
11.0
 40
12.0
 40
12.0
 40
12.0
 40
13.0
 40
13.0
 40
13.0
 40
14.0
 40
14.0
 40
14.0
 40
15.0
 40
15.0
 40
15.0
 40
16.0
 40
16.0
 40
16.0
 40
17.0
 40
17.0
 40
17.0
 40
18.0
 40
18.0
 40
18.0
 40
19.0
 40
19.0
 40
19.0
 40
20.0
 40
20.0
 40
20.0
 40
21.0
 40
21.0
 40
21.0
 40
22.0
 40
22.0
 40
22.0
 40
23.0
 40
23.0
 40
23.0
 40
24.0
 40
24.0
 40
24.0
 40
25.0
 40
25.0
 40
25.0
 40
25.0
 10
26.50704009240843
 20
-14.18471952523684
 30
0.0
 10
26.50761447143469
 20
-14.1870815611905
 30
0.0
 10
26.50824648559395
 20
-14.18937801979756
 30
0.0
 10
26.50893591574135
 20
-14.19167460355223
 30
0.0
 10
26.51060185597683
 20
-14.19738296139657
 30
0.0
 10
26.51249767930974
 20
-14.20289446205351
 30
0.0
 10
26.51445091863078
 20
-14.20834038536385
 30
0.0
 10
26.51749571916106
 20
-14.21673891619005
 30
0.0
 10
26.5208850156201
 20
-14.22487501248224
 30
0.0
 10
26.5243893632003
 20
-14.23281412643946
 30
0.0
 10
26.52910010396605
 20
-14.24337783603192
 30
0.0
 10
26.5342129757936
 20
-14.25348237905059
 30
0.0
 10
26.53961292756177
 20
-14.26319308254683
 30
0.0
 10
26.54633432363665
 20
-14.27526594714431
 30
0.0
 10
26.55345785077338
 20
-14.2867482401796
 30
0.0
 10
26.56092587383879
 20
-14.29764008680028
 30
0.0
 10
26.56988758917532
 20
-14.31069711218722
 30
0.0
 10
26.57930907070681
 20
-14.32290125662553
 30
0.0
 10
26.5891326833001
 20
-14.33431797231421
 30
0.0
 10
26.60067965211695
 20
-14.34770313472935
 30
0.0
 10
26.61268616798379
 20
-14.36003843386086
 30
0.0
 10
26.62509481491242
 20
-14.37138957220294
 30
0.0
 10
26.63951411715021
 20
-14.38451230008412
 30
0.0
 10
26.65439296643795
 20
-14.39632260499997
 30
0.0
 10
26.6696167499444
 20
-14.40695201708665
 30
0.0
 10
26.68719568468873
 20
-14.41922173887158
 30
0.0
 10
26.705234166483
 20
-14.42985115095826
 30
0.0
 10
26.72350253137473
 20
-14.43910256273307
 30
0.0
 10
26.74458581369933
 20
-14.44979755216632
 30
0.0
 10
26.76601381109759
 20
-14.45865537471395
 30
0.0
 10
26.78761405646027
 20
-14.46606961960315
 30
0.0
 10
26.81243135031754
 20
-14.47453372777596
 30
0.0
 10
26.83753594326039
 20
-14.48102951436994
 30
0.0
 10
26.86275536817953
 20
-14.48588486611806
 30
0.0
 10
26.89165138864324
 20
-14.49146194412161
 30
0.0
 10
26.92066246022816
 20
-14.49493954585306
 30
0.0
 10
26.94973094780122
 20
-14.49677658759113
 30
0.0
 10
26.98305062909008
 20
-14.49887631415837
 30
0.0
 10
27.0161402081365
 20
-14.49815446275534
 30
0.0
 10
27.0494598894253
 20
-14.49546428977348
 30
0.0
 10
27.07789636283906
 20
-14.49316783116642
 30
0.0
 10
27.10633305539785
 20
-14.48923106286113
 30
0.0
 10
27.13459706170225
 20
-14.48319456798857
 30
0.0
 10
27.15924210759519
 20
-14.47794550186563
 30
0.0
 10
27.18377210236687
 20
-14.47105612604446
 30
0.0
 10
27.20801501719797
 20
-14.46226388084344
 30
0.0
 10
27.22909829952252
 20
-14.45458707627265
 30
0.0
 10
27.25000911473777
 20
-14.44546681919102
 30
0.0
 10
27.27057543402422
 20
-14.43450939522374
 30
0.0
 10
27.28838425186606
 20
-14.42499542376729
 30
0.0
 10
27.30596318661037
 20
-14.41416927964082
 30
0.0
 10
27.32302493917165
 20
-14.40176827801512
 30
0.0
 10
27.33784637247128
 20
-14.39107328858184
 30
0.0
 10
27.35226567470903
 20
-14.37913170382515
 30
0.0
 10
27.36622542989688
 20
-14.36594339859741
 30
0.0
 10
27.37823194576367
 20
-14.35459226025533
 30
0.0
 10
27.38989374655681
 20
-14.34225696112379
 30
0.0
 10
27.40103858431186
 20
-14.32887179870866
 30
0.0
 10
27.41051748183145
 20
-14.31752066036658
 30
0.0
 10
27.41959424828918
 20
-14.30538221842246
 30
0.0
 10
27.42821124855199
 20
-14.29239077038215
 30
0.0
 10
27.43539219167681
 20
-14.28163020360229
 30
0.0
 10
27.44222841972795
 20
-14.27027906526018
 30
0.0
 10
27.44860510072913
 20
-14.2584030578501
 30
0.0
 10
27.45371797255671
 20
-14.24888908639365
 30
0.0
 10
27.4585435452987
 20
-14.23898152571001
 30
0.0
 10
27.46308181895503
 20
-14.22874582799813
 30
0.0
 10
27.46641369942591
 20
-14.22113472592155
 30
0.0
 10
27.46951591594431
 20
-14.21332664150997
 30
0.0
 10
27.47238824936529
 20
-14.20525624771193
 30
0.0
 10
27.47416902157695
 20
-14.20020403877642
 30
0.0
 10
27.47589259694551
 20
-14.19508612734669
 30
0.0
 10
27.47738628921661
 20
-14.18977148387714
 30
0.0
 10
27.47790325225466
 20
-14.18793431699148
 30
0.0
 10
27.47842043443774
 20
-14.18609715010588
 30
0.0
 10
27.4788799814877
 20
-14.18419440587362
 30
0.0
  0
POLYLINE
  5
491
330
48C
100
AcDbEntity
  8
Layer 1
 62
     7
420
 16777215
370
    60
100
AcDb2dPolyline
 66
     1
 10
0.0
 20
0.0
 30
0.0
  0
VERTEX
  5
492
330
491
100
AcDbEntity
  8
Layer 1
 62
     7
420
 16777215
370
    60
100
AcDbVertex
100
AcDb2dVertex
 10
27.59722222222222
 20
-14.46416687537092
 30
0.0
  0
VERTEX
  5
493
330
491
100
AcDbEntity
  8
Layer 1
 62
     7
420
 16777215
370
    60
100
AcDbVertex
100
AcDb2dVertex
 10
27.43240524542463
 20
-14.30971295139781
 30
0.0
  0
SEQEND
  5
494
330
491
100
AcDbEntity
  8
Layer 1
 62
     7
420
 16777215
370
    60
  0
POLYLINE
  5
495
330
48C
100
AcDbEntity
  8
Layer 1
 62
     7
420
 16777215
370
    60
100
AcDb2dPolyline
 66
     1
 10
0.0
 20
0.0
 30
0.0
  0
VERTEX
  5
496
330
495
100
AcDbEntity
  8
Layer 1
 62
     7
420
 16777215
370
    60
100
AcDbVertex
100
AcDb2dVertex
 10
26.50232957078773
 20
-14.18616297774767
 30
0.0
  0
VERTEX
  5
497
330
495
100
AcDbEntity
  8
Layer 1
 62
     7
420
 16777215
370
    60
100
AcDbVertex
100
AcDb2dVertex
 10
26.31309721204969
 20
-14.29816508101592
 30
0.0
  0
SEQEND
  5
498
330
495
100
AcDbEntity
  8
Layer 1
 62
     7
420
 16777215
370
    60
  0
POLYLINE
  5
499
330
48C
100
AcDbEntity
  8
Layer 1
 62
     7
420
 16777215
370
    60
100
AcDb2dPolyline
 66
     1
 10
0.0
 20
0.0
 30
0.0
  0
VERTEX
  5
49A
330
499
100
AcDbEntity
  8
Layer 1
 62
     7
420
 16777215
370
    60
100
AcDbVertex
100
AcDb2dVertex
 10
26.56431538944283
 20
-14.31798032753083
 30
0.0
  0
VERTEX
  5
49B
330
499
100
AcDbEntity
  8
Layer 1
 62
     7
420
 16777215
370
    60
100
AcDbVertex
100
AcDb2dVertex
 10
26.39478767187951
 20
-14.46561045302936
 30
0.0
  0
SEQEND
  5
49C
330
499
100
AcDbEntity
  8
Layer 1
 62
     7
420
 16777215
370
    60
  0
POLYLINE
  5
49D
330
48C
100
AcDbEntity
  8
Layer 1
 62
     7
420
 16777215
370
    60
100
AcDb2dPolyline
 66
     1
 10
0.0
 20
0.0
 30
0.0
  0
VERTEX
  5
49E
330
49D
100
AcDbEntity
  8
Layer 1
 62
     7
420
 16777215
370
    60
100
AcDbVertex
100
AcDb2dVertex
 10
26.66404433106689
 20
-14.42663610890834
 30
0.0
  0
VERTEX
  5
49F
330
49D
100
AcDbEntity
  8
Layer 1
 62
     7
420
 16777215
370
    60
100
AcDbVertex
100
AcDb2dVertex
 10
26.5316851383014
 20
-14.6175054838614
 30
0.0
  0
SEQEND
  5
4A0
330
49D
100
AcDbEntity
  8
Layer 1
 62
     7
420
 16777215
370
    60
  0
POLYLINE
  5
4A1
330
48C
100
AcDbEntity
  8
Layer 1
 62
     7
420
 16777215
370
    60
100
AcDb2dPolyline
 66
     1
 10
0.0
 20
0.0
 30
0.0
  0
VERTEX
  5
4A2
330
4A1
100
AcDbEntity
  8
Layer 1
 62
     7
420
 16777215
370
    60
100
AcDbVertex
100
AcDb2dVertex
 10
26.78502880297992
 20
-14.47466500761677
 30
0.0
  0
VERTEX
  5
4A3
330
4A1
100
AcDbEntity
  8
Layer 1
 62
     7
420
 16777215
370
    60
100
AcDbVertex
100
AcDb2dVertex
 10
26.71494272795508
 20
-14.70464000653159
 30
0.0
  0
SEQEND
  5
4A4
330
4A1
100
AcDbEntity
  8
Layer 1
 62
     7
420
 16777215
370
    60
  0
POLYLINE
  5
4A5
330
48C
100
AcDbEntity
  8
Layer 1
 62
     7
420
 16777215
370
    60
100
AcDb2dPolyline
 66
     1
 10
0.0
 20
0.0
 30
0.0
  0
VERTEX
  5
4A6
330
4A5
100
AcDbEntity
  8
Layer 1
 62
     7
420
 16777215
370
    60
100
AcDbVertex
100
AcDb2dVertex
 10
26.92089234332565
 20
-14.52157859084256
 30
0.0
  0
VERTEX
  5
4A7
330
4A5
100
AcDbEntity
  8
Layer 1
 62
     7
420
 16777215
370
    60
100
AcDbVertex
100
AcDb2dVertex
 10
26.90021119206292
 20
-14.76388888888889
 30
0.0
  0
SEQEND
  5
4A8
330
4A5
100
AcDbEntity
  8
Layer 1
 62
     7
420
 16777215
370
    60
  0
POLYLINE
  5
4A9
330
48C
100
AcDbEntity
  8
Layer 1
 62
     7
420
 16777215
370
    60
100
AcDb2dPolyline
 66
     1
 10
0.0
 20
0.0
 30
0.0
  0
VERTEX
  5
4AA
330
4A9
100
AcDbEntity
  8
Layer 1
 62
     7
420
 16777215
370
    60
100
AcDbVertex
100
AcDb2dVertex
 10
27.07818366192467
 20
-14.51672336424205
 30
0.0
  0
VERTEX
  5
4AB
330
4A9
100
AcDbEntity
  8
Layer 1
 62
     7
420
 16777215
370
    60
100
AcDbVertex
100
AcDb2dVertex
 10
27.09783066796626
 20
-14.75916481698156
 30
0.0
  0
SEQEND
  5
4AC
330
4A9
100
AcDbEntity
  8
Layer 1
 62
     7
420
 16777215
370
    60
  0
POLYLINE
  5
4AD
330
48C
100
AcDbEntity
  8
Layer 1
 62
     7
420
 16777215
370
    60
100
AcDb2dPolyline
 66
     1
 10
0.0
 20
0.0
 30
0.0
  0
VERTEX
  5
4AE
330
4AD
100
AcDbEntity
  8
Layer 1
 62
     7
420
 16777215
370
    60
100
AcDbVertex
100
AcDb2dVertex
 10
27.20830231628355
 20
-14.48476955063544
 30
0.0
  0
VERTEX
  5
4AF
330
4AD
100
AcDbEntity
  8
Layer 1
 62
     7
420
 16777215
370
    60
100
AcDbVertex
100
AcDb2dVertex
 10
27.28045646260565
 20
-14.71389141830643
 30
0.0
  0
SEQEND
  5
4B0
330
4AD
100
AcDbEntity
  8
Layer 1
 62
     7
420
 16777215
370
    60
  0
POLYLINE
  5
4B1
330
48C
100
AcDbEntity
  8
Layer 1
 62
     7
420
 16777215
370
    60
100
AcDb2dPolyline
 66
     1
 10
0.0
 20
0.0
 30
0.0
  0
VERTEX
  5
4B2
330
4B1
100
AcDbEntity
  8
Layer 1
 62
     7
420
 16777215
370
    60
100
AcDbVertex
100
AcDb2dVertex
 10
27.34232744928451
 20
-14.41725329214511
 30
0.0
  0
VERTEX
  5
4B3
330
4B1
100
AcDbEntity
  8
Layer 1
 62
     7
420
 16777215
370
    60
100
AcDbVertex
100
AcDb2dVertex
 10
27.45067361031639
 20
-14.62688805032942
 30
0.0
  0
SEQEND
  5
4B4
330
4B1
100
AcDbEntity
  8
Layer 1
 62
     7
420
 16777215
370
    60
  0
ENDBLK
  5
48F
330
48C
100
AcDbEntity
  8
0
100
AcDbBlockEnd
  0
ENDSEC
  0
SECTION
  2
ENTITIES
  0
INSERT
  5
42
330
1F
100
AcDbEntity
  8
Layer 1
100
AcDbBlockReference
  2
block 2
 10
0.0
 20
0.0
 30
0.0
  0
INSERT
  5
75
330
1F
100
AcDbEntity
  8
Layer 1
100
AcDbBlockReference
  2
block 3
 10
0.0
 20
0.0
 30
0.0
  0
INSERT
  5
A8
330
1F
100
AcDbEntity
  8
Layer 1
100
AcDbBlockReference
  2
block 4
 10
0.0
 20
0.0
 30
0.0
  0
INSERT
  5
D3
330
1F
100
AcDbEntity
  8
Layer 1
100
AcDbBlockReference
  2
block 5
 10
0.0
 20
0.0
 30
0.0
  0
INSERT
  5
FE
330
1F
100
AcDbEntity
  8
Layer 1
100
AcDbBlockReference
  2
block 6
 10
0.0
 20
0.0
 30
0.0
  0
INSERT
  5
131
330
1F
100
AcDbEntity
  8
Layer 1
100
AcDbBlockReference
  2
block 7
 10
0.0
 20
0.0
 30
0.0
  0
POLYLINE
  5
163
330
1F
100
AcDbEntity
  8
Layer 1
 62
     7
420
 16777215
370
    30
100
AcDb2dPolyline
 66
     1
 10
0.0
 20
0.0
 30
0.0
  0
VERTEX
  5
164
330
163
100
AcDbEntity
  8
Layer 1
 62
     7
420
 16777215
370
    30
100
AcDbVertex
100
AcDb2dVertex
 10
15.88194444444444
 20
-5.048611111111111
 30
0.0
  0
VERTEX
  5
165
330
163
100
AcDbEntity
  8
Layer 1
 62
     7
420
 16777215
370
    30
100
AcDbVertex
100
AcDb2dVertex
 10
9.729166666666666
 20
-5.048611111111111
 30
0.0
  0
VERTEX
  5
166
330
163
100
AcDbEntity
  8
Layer 1
 62
     7
420
 16777215
370
    30
100
AcDbVertex
100
AcDb2dVertex
 10
9.729166666666666
 20
-2.1875
 30
0.0
  0
VERTEX
  5
167
330
163
100
AcDbEntity
  8
Layer 1
 62
     7
420
 16777215
370
    30
100
AcDbVertex
100
AcDb2dVertex
 10
15.88194444444444
 20
-2.1875
 30
0.0
  0
VERTEX
  5
168
330
163
100
AcDbEntity
  8
Layer 1
 62
     7
420
 16777215
370
    30
100
AcDbVertex
100
AcDb2dVertex
 10
15.88194444444444
 20
-5.048611111111111
 30
0.0
  0
SEQEND
  5
169
330
163
100
AcDbEntity
  8
Layer 1
 62
     7
420
 16777215
370
    30
  0
POLYLINE
  5
16A
330
1F
100
AcDbEntity
  8
Layer 1
 62
     7
420
 16777215
370
    30
100
AcDb2dPolyline
 66
     1
 10
0.0
 20
0.0
 30
0.0
  0
VERTEX
  5
16B
330
16A
100
AcDbEntity
  8
Layer 1
 62
     7
420
 16777215
370
    30
100
AcDbVertex
100
AcDb2dVertex
 10
11.60698849417829
 20
-18.90744318236074
 30
0.0
  0
VERTEX
  5
16C
330
16A
100
AcDbEntity
  8
Layer 1
 62
     7
420
 16777215
370
    30
100
AcDbVertex
100
AcDb2dVertex
 10
12.58848350872732
 20
-18.90439649008272
 30
0.0
  0
VERTEX
  5
16D
330
16A
100
AcDbEntity
  8
Layer 1
 62
     7
420
 16777215
370
    30
100
AcDbVertex
100
AcDb2dVertex
 10
12.58868018401189
 20
-18.96771536389913
 30
0.0
  0
VERTEX
  5
16E
330
16A
100
AcDbEntity
  8
Layer 1
 62
     7
420
 16777215
370
    30
100
AcDbVertex
100
AcDb2dVertex
 10
13.57017867060507
 20
-18.9646686713691
 30
0.0
  0
VERTEX
  5
16F
330
16A
100
AcDbEntity
  8
Layer 1
 62
     7
420
 16777215
370
    30
100
AcDbVertex
100
AcDb2dVertex
 10
13.56998199519454
 20
-18.90135149297369
 30
0.0
  0
VERTEX
  5
170
330
16A
100
AcDbEntity
  8
Layer 1
 62
     7
420
 16777215
370
    30
100
AcDbVertex
100
AcDb2dVertex
 10
14.24283999384991
 20
-18.89926307129407
 30
0.0
  0
VERTEX
  5
171
330
16A
100
AcDbEntity
  8
Layer 1
 62
     7
420
 16777215
370
    30
100
AcDbVertex
100
AcDb2dVertex
 10
14.24303666926039
 20
-18.96258024968948
 30
0.0
  0
VERTEX
  5
172
330
16A
100
AcDbEntity
  8
Layer 1
 62
     7
420
 16777215
370
    30
100
AcDbVertex
100
AcDb2dVertex
 10
14.91589466791576
 20
-18.96049182800986
 30
0.0
  0
VERTEX
  5
173
330
16A
100
AcDbEntity
  8
Layer 1
 62
     7
420
 16777215
370
    30
100
AcDbVertex
100
AcDb2dVertex
 10
14.91569799250523
 20
-18.89717464961442
 30
0.0
  0
VERTEX
  5
174
330
16A
100
AcDbEntity
  8
Layer 1
 62
     7
420
 16777215
370
    30
100
AcDbVertex
100
AcDb2dVertex
 10
15.58855599116057
 20
-18.8950862279348
 30
0.0
  0
VERTEX
  5
175
330
16A
100
AcDbEntity
  8
Layer 1
 62
     7
420
 16777215
370
    30
100
AcDbVertex
100
AcDb2dVertex
 10
15.5887526665711
 20
-18.95840340633024
 30
0.0
  0
VERTEX
  5
176
330
16A
100
AcDbEntity
  8
Layer 1
 62
     7
420
 16777215
370
    30
100
AcDbVertex
100
AcDb2dVertex
 10
16.57024768099419
 20
-18.95535840947319
 30
0.0
  0
VERTEX
  5
177
330
16A
100
AcDbEntity
  8
Layer 1
 62
     7
420
 16777215
370
    30
100
AcDbVertex
100
AcDb2dVertex
 10
16.57005100558369
 20
-18.89204123107776
 30
0.0
  0
VERTEX
  5
178
330
16A
100
AcDbEntity
  8
Layer 1
 62
     7
420
 16777215
370
    30
100
AcDbVertex
100
AcDb2dVertex
 10
17.55154602013272
 20
-18.8889945387997
 30
0.0
  0
VERTEX
  5
179
330
16A
100
AcDbEntity
  8
Layer 1
 62
     7
420
 16777215
370
    30
100
AcDbVertex
100
AcDb2dVertex
 10
17.55321097357028
 20
-19.4250831473504
 30
0.0
  0
VERTEX
  5
17A
330
16A
100
AcDbEntity
  8
Layer 1
 62
     7
420
 16777215
370
    30
100
AcDbVertex
100
AcDb2dVertex
 10
17.46544462240162
 20
-19.4253556977704
 30
0.0
  0
VERTEX
  5
17B
330
16A
100
AcDbEntity
  8
Layer 1
 62
     7
420
 16777215
370
    30
100
AcDbVertex
100
AcDb2dVertex
 10
17.46710957571319
 20
-19.96144600174211
 30
0.0
  0
VERTEX
  5
17C
330
16A
100
AcDbEntity
  8
Layer 1
 62
     7
420
 16777215
370
    30
100
AcDbVertex
100
AcDb2dVertex
 10
17.55487245483775
 20
-19.96117345157409
 30
0.0
  0
VERTEX
  5
17D
330
16A
100
AcDbEntity
  8
Layer 1
 62
     7
420
 16777215
370
    30
100
AcDbVertex
100
AcDb2dVertex
 10
17.55653740814937
 20
-20.4972637555458
 30
0.0
  0
VERTEX
  5
17E
330
16A
100
AcDbEntity
  8
Layer 1
 62
     7
420
 16777215
370
    30
100
AcDbVertex
100
AcDb2dVertex
 10
17.46877452915073
 20
-20.49753461029283
 30
0.0
  0
VERTEX
  5
17F
330
16A
100
AcDbEntity
  8
Layer 1
 62
     7
420
 16777215
370
    30
100
AcDbVertex
100
AcDb2dVertex
 10
17.47043601041822
 20
-21.03362491451649
 30
0.0
  0
VERTEX
  5
180
330
16A
100
AcDbEntity
  8
Layer 1
 62
     7
420
 16777215
370
    30
100
AcDbVertex
100
AcDb2dVertex
 10
17.55820236158691
 20
-21.03335236409649
 30
0.0
  0
VERTEX
  5
181
330
16A
100
AcDbEntity
  8
Layer 1
 62
     7
420
 16777215
370
    30
100
AcDbVertex
100
AcDb2dVertex
 10
17.55986384285438
 20
-21.56944266832018
 30
0.0
  0
VERTEX
  5
182
330
16A
100
AcDbEntity
  8
Layer 1
 62
     7
420
 16777215
370
    30
100
AcDbVertex
100
AcDb2dVertex
 10
16.57836882843127
 20
-21.57248766517722
 30
0.0
  0
VERTEX
  5
183
330
16A
100
AcDbEntity
  8
Layer 1
 62
     7
420
 16777215
370
    30
100
AcDbVertex
100
AcDb2dVertex
 10
16.57817215302078
 20
-21.50917048678179
 30
0.0
  0
VERTEX
  5
184
330
16A
100
AcDbEntity
  8
Layer 1
 62
     7
420
 16777215
370
    30
100
AcDbVertex
100
AcDb2dVertex
 10
15.59667713847175
 20
-21.51221717905984
 30
0.0
  0
VERTEX
  5
185
330
16A
100
AcDbEntity
  8
Layer 1
 62
     7
420
 16777215
370
    30
100
AcDbVertex
100
AcDb2dVertex
 10
15.59687381388224
 20
-21.57553435745525
 30
0.0
  0
VERTEX
  5
186
330
16A
100
AcDbEntity
  8
Layer 1
 62
     7
420
 16777215
370
    30
100
AcDbVertex
100
AcDb2dVertex
 10
14.92401581522689
 20
-21.5776227791349
 30
0.0
  0
VERTEX
  5
187
330
16A
100
AcDbEntity
  8
Layer 1
 62
     7
420
 16777215
370
    30
100
AcDbVertex
100
AcDb2dVertex
 10
14.92381913981641
 20
-21.51430560073946
 30
0.0
  0
VERTEX
  5
188
330
16A
100
AcDbEntity
  8
Layer 1
 62
     7
420
 16777215
370
    30
100
AcDbVertex
100
AcDb2dVertex
 10
14.25096114116107
 20
-21.51639402241909
 30
0.0
  0
VERTEX
  5
189
330
16A
100
AcDbEntity
  8
Layer 1
 62
     7
420
 16777215
370
    30
100
AcDbVertex
100
AcDb2dVertex
 10
14.25115781657155
 20
-21.57971120081452
 30
0.0
  0
VERTEX
  5
18A
330
16A
100
AcDbEntity
  8
Layer 1
 62
     7
420
 16777215
370
    30
100
AcDbVertex
100
AcDb2dVertex
 10
13.5782998179162
 20
-21.58179962249415
 30
0.0
  0
VERTEX
  5
18B
330
16A
100
AcDbEntity
  8
Layer 1
 62
     7
420
 16777215
370
    30
100
AcDbVertex
100
AcDb2dVertex
 10
13.57810314263166
 20
-21.5184807486777
 30
0.0
  0
VERTEX
  5
18C
330
16A
100
AcDbEntity
  8
Layer 1
 62
     7
420
 16777215
370
    30
100
AcDbVertex
100
AcDb2dVertex
 10
12.59660812808261
 20
-21.52152744095575
 30
0.0
  0
VERTEX
  5
18D
330
16A
100
AcDbEntity
  8
Layer 1
 62
     7
420
 16777215
370
    30
100
AcDbVertex
100
AcDb2dVertex
 10
12.59680480349311
 20
-21.58484461935121
 30
0.0
  0
VERTEX
  5
18E
330
16A
100
AcDbEntity
  8
Layer 1
 62
     7
420
 16777215
370
    30
100
AcDbVertex
100
AcDb2dVertex
 10
11.61530978894406
 20
-21.58789131162924
 30
0.0
  0
VERTEX
  5
18F
330
16A
100
AcDbEntity
  8
Layer 1
 62
     7
420
 16777215
370
    30
100
AcDbVertex
100
AcDb2dVertex
 10
11.61364483563246
 20
-21.05180100765753
 30
0.0
  0
VERTEX
  5
190
330
16A
100
AcDbEntity
  8
Layer 1
 62
     7
420
 16777215
370
    30
100
AcDbVertex
100
AcDb2dVertex
 10
11.70140771463108
 20
-21.05153015291052
 30
0.0
  0
VERTEX
  5
191
330
16A
100
AcDbEntity
  8
Layer 1
 62
     7
420
 16777215
370
    30
100
AcDbVertex
100
AcDb2dVertex
 10
11.69974623336359
 20
-20.51543984868684
 30
0.0
  0
VERTEX
  5
192
330
16A
100
AcDbEntity
  8
Layer 1
 62
     7
420
 16777215
370
    30
100
AcDbVertex
100
AcDb2dVertex
 10
11.61197988219492
 20
-20.51571239910684
 30
0.0
  0
VERTEX
  5
193
330
16A
100
AcDbEntity
  8
Layer 1
 62
     7
420
 16777215
370
    30
100
AcDbVertex
100
AcDb2dVertex
 10
11.61031840092745
 20
-19.97962209488317
 30
0.0
  0
VERTEX
  5
194
330
16A
100
AcDbEntity
  8
Layer 1
 62
     7
420
 16777215
370
    30
100
AcDbVertex
100
AcDb2dVertex
 10
11.69808128005199
 20
-19.97934954471513
 30
0.0
  0
VERTEX
  5
195
330
16A
100
AcDbEntity
  8
Layer 1
 62
     7
420
 16777215
370
    30
100
AcDbVertex
100
AcDb2dVertex
 10
11.69641632661448
 20
-19.44326093616443
 30
0.0
  0
VERTEX
  5
196
330
16A
100
AcDbEntity
  8
Layer 1
 62
     7
420
 16777215
370
    30
100
AcDbVertex
100
AcDb2dVertex
 10
11.60865344748989
 20
-19.44353348633245
 30
0.0
  0
VERTEX
  5
197
330
16A
100
AcDbEntity
  8
Layer 1
 62
     7
420
 16777215
370
    30
100
AcDbVertex
100
AcDb2dVertex
 10
11.60698849417829
 20
-18.90744318236074
 30
0.0
  0
SEQEND
  5
198
330
16A
100
AcDbEntity
  8
Layer 1
 62
     7
420
 16777215
370
    30
  0
INSERT
  5
19A
330
1F
100
AcDbEntity
  8
Layer 1
100
AcDbBlockReference
  2
block 8
 10
0.0
 20
0.0
 30
0.0
  0
INSERT
  5
1C5
330
1F
100
AcDbEntity
  8
Layer 1
100
AcDbBlockReference
  2
block 9
 10
0.0
 20
0.0
 30
0.0
  0
INSERT
  5
1F8
330
1F
100
AcDbEntity
  8
Layer 1
100
AcDbBlockReference
  2
block 10
 10
0.0
 20
0.0
 30
0.0
  0
INSERT
  5
223
330
1F
100
AcDbEntity
  8
Layer 1
100
AcDbBlockReference
  2
block 11
 10
0.0
 20
0.0
 30
0.0
  0
MTEXT
  5
227
330
1F
100
AcDbEntity
  8
Layer 1
 62
     7
420
 16777215
100
AcDbMText
 10
4.103532579210082
 20
-10.38648817274307
 30
0.0
 40
0.472
 41
0.0
 46
0.0
 71
     7
 72
     1
  1
\fAthelas|b1|i0|c0|p34;\W1;Hanna 
 11
6.123233995736766E-17
 21
1.0
 31
0.0
 73
     1
 44
1.0
  0
MTEXT
  5
228
330
1F
100
AcDbEntity
  8
Layer 1
 62
     7
420
 16777215
100
AcDbMText
 10
4.90352715386286
 20
-10.38648817274307
 30
0.0
 40
0.472
 41
0.0
 46
0.0
 71
     7
 72
     1
  1
\fAthelas|b1|i0|c0|p34;\W1;Jang
 11
6.123233995736766E-17
 21
1.0
 31
0.0
 73
     1
 44
1.0
  0
INSERT
  5
22A
330
1F
100
AcDbEntity
  8
Layer 1
100
AcDbBlockReference
  2
block 12
 10
0.0
 20
0.0
 30
0.0
  0
INSERT
  5
253
330
1F
100
AcDbEntity
  8
Layer 1
100
AcDbBlockReference
  2
block 13
 10
0.0
 20
0.0
 30
0.0
  0
INSERT
  5
27C
330
1F
100
AcDbEntity
  8
Layer 1
100
AcDbBlockReference
  2
block 14
 10
0.0
 20
0.0
 30
0.0
  0
INSERT
  5
2AF
330
1F
100
AcDbEntity
  8
Layer 1
100
AcDbBlockReference
  2
block 15
 10
0.0
 20
0.0
 30
0.0
  0
INSERT
  5
2E2
330
1F
100
AcDbEntity
  8
Layer 1
100
AcDbBlockReference
  2
block 16
 10
0.0
 20
0.0
 30
0.0
  0
INSERT
  5
30D
330
1F
100
AcDbEntity
  8
Layer 1
100
AcDbBlockReference
  2
block 17
 10
0.0
 20
0.0
 30
0.0
  0
INSERT
  5
338
330
1F
100
AcDbEntity
  8
Layer 1
100
AcDbBlockReference
  2
block 18
 10
0.0
 20
0.0
 30
0.0
  0
INSERT
  5
36B
330
1F
100
AcDbEntity
  8
Layer 1
100
AcDbBlockReference
  2
block 19
 10
0.0
 20
0.0
 30
0.0
  0
POLYLINE
  5
39D
330
1F
100
AcDbEntity
  8
Layer 1
 62
     7
420
 16777215
370
    30
100
AcDb2dPolyline
 66
     1
 10
0.0
 20
0.0
 30
0.0
  0
VERTEX
  5
39E
330
39D
100
AcDbEntity
  8
Layer 1
 62
     7
420
 16777215
370
    30
100
AcDbVertex
100
AcDb2dVertex
 10
44.0625
 20
-5.576388888888888
 30
0.0
  0
VERTEX
  5
39F
330
39D
100
AcDbEntity
  8
Layer 1
 62
     7
420
 16777215
370
    30
100
AcDbVertex
100
AcDb2dVertex
 10
37.90972222222222
 20
-5.576388888888888
 30
0.0
  0
VERTEX
  5
3A0
330
39D
100
AcDbEntity
  8
Layer 1
 62
     7
420
 16777215
370
    30
100
AcDbVertex
100
AcDb2dVertex
 10
37.90972222222222
 20
-2.715277777777778
 30
0.0
  0
VERTEX
  5
3A1
330
39D
100
AcDbEntity
  8
Layer 1
 62
     7
420
 16777215
370
    30
100
AcDbVertex
100
AcDb2dVertex
 10
44.0625
 20
-2.715277777777778
 30
0.0
  0
VERTEX
  5
3A2
330
39D
100
AcDbEntity
  8
Layer 1
 62
     7
420
 16777215
370
    30
100
AcDbVertex
100
AcDb2dVertex
 10
44.0625
 20
-5.576388888888888
 30
0.0
  0
SEQEND
  5
3A3
330
39D
100
AcDbEntity
  8
Layer 1
 62
     7
420
 16777215
370
    30
  0
POLYLINE
  5
3A4
330
1F
100
AcDbEntity
  8
Layer 1
 62
     7
420
 16777215
370
    30
100
AcDb2dPolyline
 66
     1
 10
0.0
 20
0.0
 30
0.0
  0
VERTEX
  5
3A5
330
3A4
100
AcDbEntity
  8
Layer 1
 62
     7
420
 16777215
370
    30
100
AcDbVertex
100
AcDb2dVertex
 10
21.48198849417829
 20
-19.90744318236074
 30
0.0
  0
VERTEX
  5
3A6
330
3A4
100
AcDbEntity
  8
Layer 1
 62
     7
420
 16777215
370
    30
100
AcDbVertex
100
AcDb2dVertex
 10
22.46348350872732
 20
-19.90439649008272
 30
0.0
  0
VERTEX
  5
3A7
330
3A4
100
AcDbEntity
  8
Layer 1
 62
     7
420
 16777215
370
    30
100
AcDbVertex
100
AcDb2dVertex
 10
22.46368018401189
 20
-19.96771536389913
 30
0.0
  0
VERTEX
  5
3A8
330
3A4
100
AcDbEntity
  8
Layer 1
 62
     7
420
 16777215
370
    30
100
AcDbVertex
100
AcDb2dVertex
 10
23.44517867060507
 20
-19.9646686713691
 30
0.0
  0
VERTEX
  5
3A9
330
3A4
100
AcDbEntity
  8
Layer 1
 62
     7
420
 16777215
370
    30
100
AcDbVertex
100
AcDb2dVertex
 10
23.44498199519454
 20
-19.90135149297369
 30
0.0
  0
VERTEX
  5
3AA
330
3A4
100
AcDbEntity
  8
Layer 1
 62
     7
420
 16777215
370
    30
100
AcDbVertex
100
AcDb2dVertex
 10
24.11783999384991
 20
-19.89926307129407
 30
0.0
  0
VERTEX
  5
3AB
330
3A4
100
AcDbEntity
  8
Layer 1
 62
     7
420
 16777215
370
    30
100
AcDbVertex
100
AcDb2dVertex
 10
24.11803666926039
 20
-19.96258024968948
 30
0.0
  0
VERTEX
  5
3AC
330
3A4
100
AcDbEntity
  8
Layer 1
 62
     7
420
 16777215
370
    30
100
AcDbVertex
100
AcDb2dVertex
 10
24.79089466791576
 20
-19.96049182800986
 30
0.0
  0
VERTEX
  5
3AD
330
3A4
100
AcDbEntity
  8
Layer 1
 62
     7
420
 16777215
370
    30
100
AcDbVertex
100
AcDb2dVertex
 10
24.79069799250523
 20
-19.89717464961442
 30
0.0
  0
VERTEX
  5
3AE
330
3A4
100
AcDbEntity
  8
Layer 1
 62
     7
420
 16777215
370
    30
100
AcDbVertex
100
AcDb2dVertex
 10
25.46355599116057
 20
-19.8950862279348
 30
0.0
  0
VERTEX
  5
3AF
330
3A4
100
AcDbEntity
  8
Layer 1
 62
     7
420
 16777215
370
    30
100
AcDbVertex
100
AcDb2dVertex
 10
25.4637526665711
 20
-19.95840340633024
 30
0.0
  0
VERTEX
  5
3B0
330
3A4
100
AcDbEntity
  8
Layer 1
 62
     7
420
 16777215
370
    30
100
AcDbVertex
100
AcDb2dVertex
 10
26.44524768099419
 20
-19.95535840947319
 30
0.0
  0
VERTEX
  5
3B1
330
3A4
100
AcDbEntity
  8
Layer 1
 62
     7
420
 16777215
370
    30
100
AcDbVertex
100
AcDb2dVertex
 10
26.44505100558369
 20
-19.89204123107776
 30
0.0
  0
VERTEX
  5
3B2
330
3A4
100
AcDbEntity
  8
Layer 1
 62
     7
420
 16777215
370
    30
100
AcDbVertex
100
AcDb2dVertex
 10
27.42654602013272
 20
-19.8889945387997
 30
0.0
  0
VERTEX
  5
3B3
330
3A4
100
AcDbEntity
  8
Layer 1
 62
     7
420
 16777215
370
    30
100
AcDbVertex
100
AcDb2dVertex
 10
27.42821097357028
 20
-20.4250831473504
 30
0.0
  0
VERTEX
  5
3B4
330
3A4
100
AcDbEntity
  8
Layer 1
 62
     7
420
 16777215
370
    30
100
AcDbVertex
100
AcDb2dVertex
 10
27.34044462240162
 20
-20.4253556977704
 30
0.0
  0
VERTEX
  5
3B5
330
3A4
100
AcDbEntity
  8
Layer 1
 62
     7
420
 16777215
370
    30
100
AcDbVertex
100
AcDb2dVertex
 10
27.34210957571319
 20
-20.96144600174211
 30
0.0
  0
VERTEX
  5
3B6
330
3A4
100
AcDbEntity
  8
Layer 1
 62
     7
420
 16777215
370
    30
100
AcDbVertex
100
AcDb2dVertex
 10
27.42987245483775
 20
-20.96117345157409
 30
0.0
  0
VERTEX
  5
3B7
330
3A4
100
AcDbEntity
  8
Layer 1
 62
     7
420
 16777215
370
    30
100
AcDbVertex
100
AcDb2dVertex
 10
27.43153740814937
 20
-21.4972637555458
 30
0.0
  0
VERTEX
  5
3B8
330
3A4
100
AcDbEntity
  8
Layer 1
 62
     7
420
 16777215
370
    30
100
AcDbVertex
100
AcDb2dVertex
 10
27.34377452915072
 20
-21.49753461029283
 30
0.0
  0
VERTEX
  5
3B9
330
3A4
100
AcDbEntity
  8
Layer 1
 62
     7
420
 16777215
370
    30
100
AcDbVertex
100
AcDb2dVertex
 10
27.34543601041822
 20
-22.03362491451649
 30
0.0
  0
VERTEX
  5
3BA
330
3A4
100
AcDbEntity
  8
Layer 1
 62
     7
420
 16777215
370
    30
100
AcDbVertex
100
AcDb2dVertex
 10
27.43320236158691
 20
-22.03335236409649
 30
0.0
  0
VERTEX
  5
3BB
330
3A4
100
AcDbEntity
  8
Layer 1
 62
     7
420
 16777215
370
    30
100
AcDbVertex
100
AcDb2dVertex
 10
27.43486384285438
 20
-22.56944266832018
 30
0.0
  0
VERTEX
  5
3BC
330
3A4
100
AcDbEntity
  8
Layer 1
 62
     7
420
 16777215
370
    30
100
AcDbVertex
100
AcDb2dVertex
 10
26.45336882843127
 20
-22.57248766517722
 30
0.0
  0
VERTEX
  5
3BD
330
3A4
100
AcDbEntity
  8
Layer 1
 62
     7
420
 16777215
370
    30
100
AcDbVertex
100
AcDb2dVertex
 10
26.45317215302078
 20
-22.50917048678179
 30
0.0
  0
VERTEX
  5
3BE
330
3A4
100
AcDbEntity
  8
Layer 1
 62
     7
420
 16777215
370
    30
100
AcDbVertex
100
AcDb2dVertex
 10
25.47167713847175
 20
-22.51221717905984
 30
0.0
  0
VERTEX
  5
3BF
330
3A4
100
AcDbEntity
  8
Layer 1
 62
     7
420
 16777215
370
    30
100
AcDbVertex
100
AcDb2dVertex
 10
25.47187381388224
 20
-22.57553435745525
 30
0.0
  0
VERTEX
  5
3C0
330
3A4
100
AcDbEntity
  8
Layer 1
 62
     7
420
 16777215
370
    30
100
AcDbVertex
100
AcDb2dVertex
 10
24.79901581522689
 20
-22.5776227791349
 30
0.0
  0
VERTEX
  5
3C1
330
3A4
100
AcDbEntity
  8
Layer 1
 62
     7
420
 16777215
370
    30
100
AcDbVertex
100
AcDb2dVertex
 10
24.79881913981641
 20
-22.51430560073946
 30
0.0
  0
VERTEX
  5
3C2
330
3A4
100
AcDbEntity
  8
Layer 1
 62
     7
420
 16777215
370
    30
100
AcDbVertex
100
AcDb2dVertex
 10
24.12596114116107
 20
-22.51639402241909
 30
0.0
  0
VERTEX
  5
3C3
330
3A4
100
AcDbEntity
  8
Layer 1
 62
     7
420
 16777215
370
    30
100
AcDbVertex
100
AcDb2dVertex
 10
24.12615781657155
 20
-22.57971120081452
 30
0.0
  0
VERTEX
  5
3C4
330
3A4
100
AcDbEntity
  8
Layer 1
 62
     7
420
 16777215
370
    30
100
AcDbVertex
100
AcDb2dVertex
 10
23.4532998179162
 20
-22.58179962249415
 30
0.0
  0
VERTEX
  5
3C5
330
3A4
100
AcDbEntity
  8
Layer 1
 62
     7
420
 16777215
370
    30
100
AcDbVertex
100
AcDb2dVertex
 10
23.45310314263166
 20
-22.5184807486777
 30
0.0
  0
VERTEX
  5
3C6
330
3A4
100
AcDbEntity
  8
Layer 1
 62
     7
420
 16777215
370
    30
100
AcDbVertex
100
AcDb2dVertex
 10
22.47160812808261
 20
-22.52152744095575
 30
0.0
  0
VERTEX
  5
3C7
330
3A4
100
AcDbEntity
  8
Layer 1
 62
     7
420
 16777215
370
    30
100
AcDbVertex
100
AcDb2dVertex
 10
22.47180480349311
 20
-22.58484461935121
 30
0.0
  0
VERTEX
  5
3C8
330
3A4
100
AcDbEntity
  8
Layer 1
 62
     7
420
 16777215
370
    30
100
AcDbVertex
100
AcDb2dVertex
 10
21.49030978894406
 20
-22.58789131162924
 30
0.0
  0
VERTEX
  5
3C9
330
3A4
100
AcDbEntity
  8
Layer 1
 62
     7
420
 16777215
370
    30
100
AcDbVertex
100
AcDb2dVertex
 10
21.48864483563246
 20
-22.05180100765753
 30
0.0
  0
VERTEX
  5
3CA
330
3A4
100
AcDbEntity
  8
Layer 1
 62
     7
420
 16777215
370
    30
100
AcDbVertex
100
AcDb2dVertex
 10
21.57640771463108
 20
-22.05153015291052
 30
0.0
  0
VERTEX
  5
3CB
330
3A4
100
AcDbEntity
  8
Layer 1
 62
     7
420
 16777215
370
    30
100
AcDbVertex
100
AcDb2dVertex
 10
21.57474623336359
 20
-21.51543984868684
 30
0.0
  0
VERTEX
  5
3CC
330
3A4
100
AcDbEntity
  8
Layer 1
 62
     7
420
 16777215
370
    30
100
AcDbVertex
100
AcDb2dVertex
 10
21.48697988219492
 20
-21.51571239910684
 30
0.0
  0
VERTEX
  5
3CD
330
3A4
100
AcDbEntity
  8
Layer 1
 62
     7
420
 16777215
370
    30
100
AcDbVertex
100
AcDb2dVertex
 10
21.48531840092745
 20
-20.97962209488317
 30
0.0
  0
VERTEX
  5
3CE
330
3A4
100
AcDbEntity
  8
Layer 1
 62
     7
420
 16777215
370
    30
100
AcDbVertex
100
AcDb2dVertex
 10
21.57308128005199
 20
-20.97934954471513
 30
0.0
  0
VERTEX
  5
3CF
330
3A4
100
AcDbEntity
  8
Layer 1
 62
     7
420
 16777215
370
    30
100
AcDbVertex
100
AcDb2dVertex
 10
21.57141632661448
 20
-20.44326093616443
 30
0.0
  0
VERTEX
  5
3D0
330
3A4
100
AcDbEntity
  8
Layer 1
 62
     7
420
 16777215
370
    30
100
AcDbVertex
100
AcDb2dVertex
 10
21.48365344748989
 20
-20.44353348633245
 30
0.0
  0
VERTEX
  5
3D1
330
3A4
100
AcDbEntity
  8
Layer 1
 62
     7
420
 16777215
370
    30
100
AcDbVertex
100
AcDb2dVertex
 10
21.48198849417829
 20
-19.90744318236074
 30
0.0
  0
SEQEND
  5
3D2
330
3A4
100
AcDbEntity
  8
Layer 1
 62
     7
420
 16777215
370
    30
  0
INSERT
  5
3D4
330
1F
100
AcDbEntity
  8
Layer 1
100
AcDbBlockReference
  2
block 20
 10
0.0
 20
0.0
 30
0.0
  0
INSERT
  5
3FF
330
1F
100
AcDbEntity
  8
Layer 1
100
AcDbBlockReference
  2
block 21
 10
0.0
 20
0.0
 30
0.0
  0
INSERT
  5
432
330
1F
100
AcDbEntity
  8
Layer 1
100
AcDbBlockReference
  2
block 22
 10
0.0
 20
0.0
 30
0.0
  0
INSERT
  5
437
330
1F
100
AcDbEntity
  8
Layer 1
100
AcDbBlockReference
  2
block 23
 10
0.0
 20
0.0
 30
0.0
  0
INSERT
  5
462
330
1F
100
AcDbEntity
  8
Layer 1
100
AcDbBlockReference
  2
block 24
 10
0.0
 20
0.0
 30
0.0
  0
INSERT
  5
48D
330
1F
100
AcDbEntity
  8
Layer 1
100
AcDbBlockReference
  2
block 25
 10
0.0
 20
0.0
 30
0.0
  0
ENDSEC
  0
SECTION
  2
OBJECTS
  0
DICTIONARY
  5
C
330
0
100
AcDbDictionary
281
     1
  3
ACAD_GROUP
350
D
  3
ACAD_LAYOUT
350
1A
  3
ACAD_MATERIAL
350
3B
  3
ACAD_MLEADERSTYLE
350
4B6
  3
ACAD_MLINESTYLE
350
17
  3
ACAD_PLOTSETTINGS
350
19
  3
ACAD_PLOTSTYLENAME
350
E
  3
ACAD_TABLESTYLE
350
4B5
  3
ACAD_VISUALSTYLE
350
2A
  0
SUN
  5
3F
330
29
100
AcDbSun
 90
        1
290
     0
 63
     7
421
 16777215
 40
1.0
291
     1
 91
  2455826
 92
 54000000
292
     0
 70
     2
 71
   256
280
     1
  0
DICTIONARY
  5
D
102
{ACAD_REACTORS
330
C
102
}
330
C
100
AcDbDictionary
281
     1
  0
DICTIONARY
  5
1A
102
{ACAD_REACTORS
330
C
102
}
330
C
100
AcDbDictionary
281
     1
  3
Layout1
350
1E
  3
Layout2
350
26
  3
Model
350
22
  0
DICTIONARY
  5
3B
102
{ACAD_REACTORS
330
C
102
}
330
C
100
AcDbDictionary
281
     1
  3
ByBlock
350
3D
  3
ByLayer
350
3C
  3
Global
350
3E
  0
DICTIONARY
  5
4B6
102
{ACAD_REACTORS
330
C
102
}
330
C
100
AcDbDictionary
281
     1
  0
DICTIONARY
  5
17
102
{ACAD_REACTORS
330
C
102
}
330
C
100
AcDbDictionary
281
     1
  3
Standard
350
18
  0
DICTIONARY
  5
19
102
{ACAD_REACTORS
330
C
102
}
330
C
100
AcDbDictionary
281
     1
  0
ACDBDICTIONARYWDFLT
  5
E
102
{ACAD_REACTORS
330
C
102
}
330
C
100
AcDbDictionary
281
     1
  3
Normal
350
F
100
AcDbDictionaryWithDefault
340
F
  0
DICTIONARY
  5
4B5
102
{ACAD_REACTORS
330
C
102
}
330
C
100
AcDbDictionary
281
     1
  0
DICTIONARY
  5
2A
102
{ACAD_REACTORS
330
C
102
}
330
C
100
AcDbDictionary
281
     1
  3
2dWireframe
350
2F
  3
3D Hidden
350
31
  3
3dWireframe
350
30
  3
Basic
350
32
  3
Brighten
350
36
  3
ColorChange
350
3A
  3
Conceptual
350
34
  3
Dim
350
35
  3
Facepattern
350
39
  3
Flat
350
2B
  3
FlatWithEdges
350
2C
  3
Gouraud
350
2D
  3
GouraudWithEdges
350
2E
  3
Linepattern
350
38
  3
Realistic
350
33
  3
Thicken
350
37
  0
LAYOUT
  5
1E
102
{ACAD_REACTORS
330
1A
102
}
330
1A
100
AcDbPlotSettings
  1

  2
none_device
  4

  6

 40
0.0
 41
0.0
 42
0.0
 43
0.0
 44
0.0
 45
0.0
 46
0.0
 47
0.0
 48
0.0
 49
0.0
140
0.0
141
0.0
142
1.0
143
1.0
 70
   688
 72
     0
 73
     0
 74
     5
  7

 75
    16
 76
     0
 77
     2
 78
   300
147
1.0
148
0.0
149
0.0
100
AcDbLayout
  1
Layout1
 70
     1
 71
     1
 10
0.0
 20
0.0
 11
12.0
 21
9.0
 12
0.0
 22
0.0
 32
0.0
 14
1.000000000000000E+20
 24
1.000000000000000E+20
 34
1.000000000000000E+20
 15
-1.000000000000000E+20
 25
-1.000000000000000E+20
 35
-1.000000000000000E+20
146
0.0
 13
0.0
 23
0.0
 33
0.0
 16
1.0
 26
0.0
 36
0.0
 17
0.0
 27
1.0
 37
0.0
 76
     0
330
1B
  0
LAYOUT
  5
26
102
{ACAD_REACTORS
330
1A
102
}
330
1A
100
AcDbPlotSettings
  1

  2
none_device
  4

  6

 40
0.0
 41
0.0
 42
0.0
 43
0.0
 44
0.0
 45
0.0
 46
0.0
 47
0.0
 48
0.0
 49
0.0
140
0.0
141
0.0
142
1.0
143
1.0
 70
   688
 72
     0
 73
     0
 74
     5
  7

 75
    16
 76
     0
 77
     2
 78
   300
147
1.0
148
0.0
149
0.0
100
AcDbLayout
  1
Layout2
 70
     1
 71
     2
 10
0.0
 20
0.0
 11
0.0
 21
0.0
 12
0.0
 22
0.0
 32
0.0
 14
0.0
 24
0.0
 34
0.0
 15
0.0
 25
0.0
 35
0.0
146
0.0
 13
0.0
 23
0.0
 33
0.0
 16
1.0
 26
0.0
 36
0.0
 17
0.0
 27
1.0
 37
0.0
 76
     0
330
23
  0
LAYOUT
  5
22
102
{ACAD_REACTORS
330
1A
102
}
330
1A
100
AcDbPlotSettings
  1

  2
none_device
  4

  6

 40
0.0
 41
0.0
 42
0.0
 43
0.0
 44
0.0
 45
0.0
 46
0.0
 47
0.0
 48
0.0
 49
0.0
140
0.0
141
0.0
142
1.0
143
1.0
 70
  1712
 72
     0
 73
     0
 74
     0
  7

 75
     0
 76
     0
 77
     2
 78
   300
147
1.0
148
0.0
149
0.0
100
AcDbLayout
  1
Model
 70
     1
 71
     0
 10
0.0
 20
0.0
 11
12.0
 21
9.0
 12
0.0
 22
0.0
 32
0.0
 14
1.000000000000000E+20
 24
1.000000000000000E+20
 34
1.000000000000000E+20
 15
-1.000000000000000E+20
 25
-1.000000000000000E+20
 35
-1.000000000000000E+20
146
0.0
 13
0.0
 23
0.0
 33
0.0
 16
1.0
 26
0.0
 36
0.0
 17
0.0
 27
1.0
 37
0.0
 76
     0
330
1F
331
29
  0
MATERIAL
  5
3D
102
{ACAD_REACTORS
330
3B
102
}
330
3B
100
AcDbMaterial
  1
ByBlock
 72
     1
 94
      127
  0
MATERIAL
  5
3C
102
{ACAD_REACTORS
330
3B
102
}
330
3B
100
AcDbMaterial
  1
ByLayer
 72
     1
 94
      127
  0
MATERIAL
  5
3E
102
{ACAD_REACTORS
330
3B
102
}
330
3B
100
AcDbMaterial
  1
Global
 72
     1
 94
      127
  0
MLINESTYLE
  5
18
102
{ACAD_REACTORS
330
17
102
}
330
17
100
AcDbMlineStyle
  2
Standard
 70
     0
  3

 62
   256
 51
90.0
 52
90.0
 71
     2
 49
0.5
 62
   256
  6
BYLAYER
 49
-0.5
 62
   256
  6
BYLAYER
  0
ACDBPLACEHOLDER
  5
F
102
{ACAD_REACTORS
330
E
102
}
330
E
  0
VISUALSTYLE
  5
2F
102
{ACAD_REACTORS
330
2A
102
}
330
2A
100
AcDbVisualStyle
  2
2dWireframe
 70
     4
177
     2
291
     0
 71
     0
176
     1
 72
     2
176
     1
 73
     0
176
     1
 90
        0
176
     1
 40
-0.6
176
     1
 41
-30.0
176
     1
 62
     5
 63
     7
421
 16777215
176
     1
 74
     1
176
     1
 91
        4
176
     1
 64
     7
176
     1
 65
   257
176
     1
 75
     1
176
     1
175
     1
176
     1
 42
1.0
176
     1
 92
        0
176
     1
 66
   257
176
     1
 43
1.0
176
     1
 76
     1
176
     1
 77
     6
176
     1
 78
     2
176
     1
 67
     7
176
     1
 79
     5
176
     1
170
     0
176
     1
171
     0
176
     1
290
     0
176
     1
 93
        1
176
     1
 44
0.0
176
     1
173
     0
176
     1
  0
VISUALSTYLE
  5
31
102
{ACAD_REACTORS
330
2A
102
}
330
2A
100
AcDbVisualStyle
  2
3D Hidden
 70
     6
177
     2
291
     0
 71
     1
176
     1
 72
     2
176
     1
 73
     2
176
     1
 90
        0
176
     1
 40
-0.6
176
     1
 41
-30.0
176
     1
 62
     5
 63
     7
421
 16777215
176
     1
 74
     2
176
     1
 91
        2
176
     1
 64
     7
176
     1
 65
   257
176
     1
 75
     2
176
     1
175
     1
176
     1
 42
40.0
176
     1
 92
        0
176
     1
 66
   257
176
     1
 43
1.0
176
     1
 76
     1
176
     1
 77
     6
176
     1
 78
     2
176
     1
 67
     7
176
     1
 79
     3
176
     1
170
     0
176
     1
171
     0
176
     1
290
     0
176
     1
 93
        1
176
     1
 44
0.0
176
     1
173
     0
176
     1
  0
VISUALSTYLE
  5
30
102
{ACAD_REACTORS
330
2A
102
}
330
2A
100
AcDbVisualStyle
  2
3dWireframe
 70
     5
177
     2
291
     0
 71
     0
176
     1
 72
     2
176
     1
 73
     0
176
     1
 90
        0
176
     1
 40
-0.6
176
     1
 41
-30.0
176
     1
 62
     5
 63
     7
421
 16777215
176
     1
 74
     1
176
     1
 91
        4
176
     1
 64
     7
176
     1
 65
   257
176
     1
 75
     1
176
     1
175
     1
176
     1
 42
1.0
176
     1
 92
        0
176
     1
 66
   257
176
     1
 43
1.0
176
     1
 76
     1
176
     1
 77
     6
176
     1
 78
     2
176
     1
 67
     7
176
     1
 79
     5
176
     1
170
     0
176
     1
171
     0
176
     1
290
     0
176
     1
 93
        1
176
     1
 44
0.0
176
     1
173
     0
176
     1
  0
VISUALSTYLE
  5
32
102
{ACAD_REACTORS
330
2A
102
}
330
2A
100
AcDbVisualStyle
  2
Basic
 70
     7
177
     2
291
     1
 71
     1
176
     1
 72
     0
176
     1
 73
     1
176
     1
 90
        0
176
     1
 40
-0.6
176
     1
 41
-30.0
176
     1
 62
     5
 63
     7
421
 16777215
176
     1
 74
     0
176
     1
 91
        4
176
     1
 64
     7
176
     1
 65
   257
176
     1
 75
     1
176
     1
175
     1
176
     1
 42
1.0
176
     1
 92
        8
176
     1
 66
     7
176
     1
 43
1.0
176
     1
 76
     1
176
     1
 77
     6
176
     1
 78
     2
176
     1
 67
     7
176
     1
 79
     5
176
     1
170
     0
176
     1
171
     0
176
     1
290
     0
176
     1
 93
        1
176
     1
 44
0.0
176
     1
173
     0
176
     1
  0
VISUALSTYLE
  5
36
102
{ACAD_REACTORS
330
2A
102
}
330
2A
100
AcDbVisualStyle
  2
Brighten
 70
    12
177
     2
291
     1
 71
     2
176
     1
 72
     2
176
     1
 73
     0
176
     1
 90
        0
176
     1
 40
-0.6
176
     1
 41
-30.0
176
     1
 62
     5
 63
     7
421
 16777215
176
     1
 74
     1
176
     1
 91
        4
176
     1
 64
     7
176
     1
 65
   257
176
     1
 75
     1
176
     1
175
     1
176
     1
 42
1.0
176
     1
 92
        8
176
     1
 66
     7
176
     1
 43
1.0
176
     1
 76
     1
176
     1
 77
     6
176
     1
 78
     2
176
     1
 67
     7
176
     1
 79
     5
176
     1
170
     0
176
     1
171
     0
176
     1
290
     0
176
     1
 93
        1
176
     1
 44
50.0
176
     1
173
     0
176
     1
  0
VISUALSTYLE
  5
3A
102
{ACAD_REACTORS
330
2A
102
}
330
2A
100
AcDbVisualStyle
  2
ColorChange
 70
    16
177
     2
291
     1
 71
     2
176
     1
 72
     2
176
     1
 73
     3
176
     1
 90
        0
176
     1
 40
-0.6
176
     1
 41
-30.0
176
     1
 62
     5
 63
     8
421
  8421504
176
     1
 74
     1
176
     1
 91
        4
176
     1
 64
     7
176
     1
 65
   257
176
     1
 75
     1
176
     1
175
     1
176
     1
 42
1.0
176
     1
 92
        8
176
     1
 66
     8
424
  8421504
176
     1
 43
1.0
176
     1
 76
     1
176
     1
 77
     6
176
     1
 78
     2
176
     1
 67
     7
176
     1
 79
     5
176
     1
170
     0
176
     1
171
     0
176
     1
290
     0
176
     1
 93
        1
176
     1
 44
0.0
176
     1
173
     0
176
     1
  0
VISUALSTYLE
  5
34
102
{ACAD_REACTORS
330
2A
102
}
330
2A
100
AcDbVisualStyle
  2
Conceptual
 70
     9
177
     2
291
     0
 71
     3
176
     1
 72
     2
176
     1
 73
     0
176
     1
 90
        0
176
     1
 40
-0.6
176
     1
 41
-30.0
176
     1
 62
     5
 63
     7
421
 16777215
176
     1
 74
     2
176
     1
 91
        2
176
     1
 64
     7
176
     1
 65
   257
176
     1
 75
     1
176
     1
175
     1
176
     1
 42
40.0
176
     1
 92
        8
176
     1
 66
     7
176
     1
 43
1.0
176
     1
 76
     1
176
     1
 77
     6
176
     1
 78
     2
176
     1
 67
     7
176
     1
 79
     3
176
     1
170
     0
176
     1
171
     0
176
     1
290
     0
176
     1
 93
        1
176
     1
 44
0.0
176
     1
173
     0
176
     1
  0
VISUALSTYLE
  5
35
102
{ACAD_REACTORS
330
2A
102
}
330
2A
100
AcDbVisualStyle
  2
Dim
 70
    11
177
     2
291
     1
 71
     2
176
     1
 72
     2
176
     1
 73
     0
176
     1
 90
        0
176
     1
 40
-0.6
176
     1
 41
-30.0
176
     1
 62
     5
 63
     7
421
 16777215
176
     1
 74
     1
176
     1
 91
        4
176
     1
 64
     7
176
     1
 65
   257
176
     1
 75
     1
176
     1
175
     1
176
     1
 42
1.0
176
     1
 92
        8
176
     1
 66
     7
176
     1
 43
1.0
176
     1
 76
     1
176
     1
 77
     6
176
     1
 78
     2
176
     1
 67
     7
176
     1
 79
     5
176
     1
170
     0
176
     1
171
     0
176
     1
290
     0
176
     1
 93
        1
176
     1
 44
-50.0
176
     1
173
     0
176
     1
  0
VISUALSTYLE
  5
39
102
{ACAD_REACTORS
330
2A
102
}
330
2A
100
AcDbVisualStyle
  2
Facepattern
 70
    15
177
     2
291
     1
 71
     2
176
     1
 72
     2
176
     1
 73
     0
176
     1
 90
        0
176
     1
 40
-0.6
176
     1
 41
-30.0
176
     1
 62
     5
 63
     7
421
 16777215
176
     1
 74
     1
176
     1
 91
        4
176
     1
 64
     7
176
     1
 65
   257
176
     1
 75
     1
176
     1
175
     1
176
     1
 42
1.0
176
     1
 92
        8
176
     1
 66
     7
176
     1
 43
1.0
176
     1
 76
     1
176
     1
 77
     6
176
     1
 78
     2
176
     1
 67
     7
176
     1
 79
     5
176
     1
170
     0
176
     1
171
     0
176
     1
290
     0
176
     1
 93
        1
176
     1
 44
0.0
176
     1
173
     0
176
     1
  0
VISUALSTYLE
  5
2B
102
{ACAD_REACTORS
330
2A
102
}
330
2A
100
AcDbVisualStyle
  2
Flat
 70
     0
177
     2
291
     1
 71
     2
176
     1
 72
     1
176
     1
 73
     1
176
     1
 90
        2
176
     1
 40
-0.6
176
     1
 41
30.0
176
     1
 62
     5
 63
     7
421
 16777215
176
     1
 74
     0
176
     1
 91
        4
176
     1
 64
     7
176
     1
 65
   257
176
     1
 75
     1
176
     1
175
     1
176
     1
 42
1.0
176
     1
 92
        8
176
     1
 66
     7
176
     1
 43
1.0
176
     1
 76
     1
176
     1
 77
     6
176
     1
 78
     2
176
     1
 67
     7
176
     1
 79
     5
176
     1
170
     0
176
     1
171
     0
176
     1
290
     0
176
     1
 93
       13
176
     1
 44
0.0
176
     1
173
     0
176
     1
  0
VISUALSTYLE
  5
2C
102
{ACAD_REACTORS
330
2A
102
}
330
2A
100
AcDbVisualStyle
  2
FlatWithEdges
 70
     1
177
     2
291
     1
 71
     2
176
     1
 72
     1
176
     1
 73
     1
176
     1
 90
        2
176
     1
 40
-0.6
176
     1
 41
30.0
176
     1
 62
     5
 63
     7
421
 16777215
176
     1
 74
     1
176
     1
 91
        4
176
     1
 64
     7
176
     1
 65
   257
176
     1
 75
     1
176
     1
175
     1
176
     1
 42
1.0
176
     1
 92
        0
176
     1
 66
   257
176
     1
 43
1.0
176
     1
 76
     1
176
     1
 77
     6
176
     1
 78
     2
176
     1
 67
     7
176
     1
 79
     5
176
     1
170
     0
176
     1
171
     0
176
     1
290
     0
176
     1
 93
       13
176
     1
 44
0.0
176
     1
173
     0
176
     1
  0
VISUALSTYLE
  5
2D
102
{ACAD_REACTORS
330
2A
102
}
330
2A
100
AcDbVisualStyle
  2
Gouraud
 70
     2
177
     2
291
     1
 71
     2
176
     1
 72
     2
176
     1
 73
     1
176
     1
 90
        2
176
     1
 40
-0.6
176
     1
 41
30.0
176
     1
 62
     5
 63
     7
421
 16777215
176
     1
 74
     0
176
     1
 91
        4
176
     1
 64
     7
176
     1
 65
   257
176
     1
 75
     1
176
     1
175
     1
176
     1
 42
1.0
176
     1
 92
        0
176
     1
 66
     7
176
     1
 43
1.0
176
     1
 76
     1
176
     1
 77
     6
176
     1
 78
     2
176
     1
 67
     7
176
     1
 79
     5
176
     1
170
     0
176
     1
171
     0
176
     1
290
     0
176
     1
 93
       13
176
     1
 44
0.0
176
     1
173
     0
176
     1
  0
VISUALSTYLE
  5
2E
102
{ACAD_REACTORS
330
2A
102
}
330
2A
100
AcDbVisualStyle
  2
GouraudWithEdges
 70
     3
177
     2
291
     1
 71
     2
176
     1
 72
     2
176
     1
 73
     1
176
     1
 90
        2
176
     1
 40
-0.6
176
     1
 41
30.0
176
     1
 62
     5
 63
     7
421
 16777215
176
     1
 74
     1
176
     1
 91
        4
176
     1
 64
     7
176
     1
 65
   257
176
     1
 75
     1
176
     1
175
     1
176
     1
 42
1.0
176
     1
 92
        0
176
     1
 66
   257
176
     1
 43
1.0
176
     1
 76
     1
176
     1
 77
     6
176
     1
 78
     2
176
     1
 67
     7
176
     1
 79
     5
176
     1
170
     0
176
     1
171
     0
176
     1
290
     0
176
     1
 93
       13
176
     1
 44
0.0
176
     1
173
     0
176
     1
  0
VISUALSTYLE
  5
38
102
{ACAD_REACTORS
330
2A
102
}
330
2A
100
AcDbVisualStyle
  2
Linepattern
 70
    14
177
     2
291
     1
 71
     2
176
     1
 72
     2
176
     1
 73
     0
176
     1
 90
        0
176
     1
 40
-0.6
176
     1
 41
-30.0
176
     1
 62
     5
 63
     7
421
 16777215
176
     1
 74
     1
176
     1
 91
        4
176
     1
 64
     7
176
     1
 65
   257
176
     1
 75
     7
176
     1
175
     7
176
     1
 42
1.0
176
     1
 92
        8
176
     1
 66
     7
176
     1
 43
1.0
176
     1
 76
     1
176
     1
 77
     6
176
     1
 78
     2
176
     1
 67
     7
176
     1
 79
     5
176
     1
170
     0
176
     1
171
     0
176
     1
290
     0
176
     1
 93
        1
176
     1
 44
0.0
176
     1
173
     0
176
     1
  0
VISUALSTYLE
  5
33
102
{ACAD_REACTORS
330
2A
102
}
330
2A
100
AcDbVisualStyle
  2
Realistic
 70
     8
177
     2
291
     0
 71
     2
176
     1
 72
     2
176
     1
 73
     0
176
     1
 90
        0
176
     1
 40
-0.6
176
     1
 41
-30.0
176
     1
 62
     5
 63
     7
421
 16777215
176
     1
 74
     1
176
     1
 91
        0
176
     1
 64
     7
176
     1
 65
   257
176
     1
 75
     1
176
     1
175
     1
176
     1
 42
1.0
176
     1
 92
        8
176
     1
 66
     8
424
  7895160
176
     1
 43
1.0
176
     1
 76
     1
176
     1
 77
     6
176
     1
 78
     2
176
     1
 67
     7
176
     1
 79
     5
176
     1
170
     0
176
     1
171
     0
176
     1
290
     0
176
     1
 93
       13
176
     1
 44
0.0
176
     1
173
     0
176
     1
  0
VISUALSTYLE
  5
37
102
{ACAD_REACTORS
330
2A
102
}
330
2A
100
AcDbVisualStyle
  2
Thicken
 70
    13
177
     2
291
     1
 71
     2
176
     1
 72
     2
176
     1
 73
     0
176
     1
 90
        0
176
     1
 40
-0.6
176
     1
 41
-30.0
176
     1
 62
     5
 63
     7
421
 16777215
176
     1
 74
     1
176
     1
 91
        4
176
     1
 64
     7
176
     1
 65
   257
176
     1
 75
     1
176
     1
175
     1
176
     1
 42
1.0
176
     1
 92
       12
176
     1
 66
     7
176
     1
 43
1.0
176
     1
 76
     1
176
     1
 77
     6
176
     1
 78
     2
176
     1
 67
     7
176
     1
 79
     5
176
     1
170
     0
176
     1
171
     0
176
     1
290
     0
176
     1
 93
        1
176
     1
 44
0.0
176
     1
173
     0
176
     1
  0
ENDSEC
  0
EOF
