0
SECTION
2
HEADER
9
$INSUNITS
70
4
9
$ACADVER
1
AC1014
9
$HANDSEED
5
FFFF
0
ENDSEC
0
SECTION
2
TABLES
0
TABLE
2
VPORT
5
8
100
AcDbSymbolTable
0
ENDTAB
0
TABLE
2
LTYPE
5
5
100
AcDbSymbolTable
0
LTYPE
5
14
100
AcDbSymbolTableRecord
100
AcDbLinetypeTableRecord
2
BYBLOCK
70
0
0
LTYPE
5
15
100
AcDbSymbolTableRecord
100
AcDbLinetypeTableRecord
2
BYLAYER
70
0
0
ENDTAB
0
TABLE
2
LAYER
5
2
100
AcDbSymbolTable
70
2
0
LAYER
5
50
100
AcDbSymbolTableRecord
100
AcDbLayerTableRecord
2
0
70
0
6
CONTINUOUS
0
ENDTAB
0
TABLE
2
STYLE
5
3
100
AcDbSymbolTable
70
1
0
STYLE
5
11
100
AcDbSymbolTableRecord
100
AcDbTextStyleTableRecord
2
STANDARD
70
0
0
ENDTAB
0
TABLE
2
VIEW
5
6
100
AcDbSymbolTable
70
0
0
ENDTAB
0
TABLE
2
UCS
5
7
100
AcDbSymbolTable
70
0
0
ENDTAB
0
TABLE
2
APPID
5
9
100
AcDbSymbolTable
70
2
0
APPID
5
12
100
AcDbSymbolTableRecord
100
AcDbRegAppTableRecord
2
ACAD
70
0
0
ENDTAB
0
TABLE
2
DIMSTYLE
5
A
100
AcDbSymbolTable
70
1
0
ENDTAB
0
TABLE
2
BLOCK_RECORD
5
1
100
AcDbSymbolTable
70
1
0
BLOCK_RECORD
5
1F
100
AcDbSymbolTableRecord
100
AcDbBlockTableRecord
2
*MODEL_SPACE
0
BLOCK_RECORD
5
1B
100
AcDbSymbolTableRecord
100
AcDbBlockTableRecord
2
*PAPER_SPACE
0
ENDTAB
0
ENDSEC
0
SECTION
2
BLOCKS
0
BLOCK
5
20
100
AcDbEntity
100
AcDbBlockBegin
2
*MODEL_SPACE
0
ENDBLK
5
21
100
AcDbEntity
100
AcDbBlockEnd
0
BLOCK
5
1C
100
AcDbEntity
100
AcDbBlockBegin
2
*PAPER_SPACE
0
ENDBLK
5
1D
100
AcDbEntity
100
AcDbBlockEnd
0
ENDSEC
0
SECTION
2
ENTITIES
0
SPLINE
5
100
100
AcDbEntity
8
0
100
AcDbSpline
70
1064
71
5
72
41
73
35
74
0
42
0.000000001
43
0.0000000001
44
0.0000000001
40
-1
40
-1
40
-1
40
-1
40
-1
40
-1
40
-0.96666666666666656
40
-0.93333333333333324
40
-0.89999999999999991
40
-0.86666666666666659
40
-0.83333333333333326
40
-0.79999999999999993
40
-0.76666666666666661
40
-0.73333333333333328
40
-0.69999999999999996
40
-0.66666666666666663
40
-0.6333333333333333
40
-0.59999999999999998
40
-0.56666666666666665
40
-0.53333333333333333
40
-0.49999999999999994
40
-0.46666666666666662
40
-0.43333333333333329
40
-0.39999999999999997
40
-0.36666666666666664
40
-0.33333333333333331
40
-0.29999999999999999
40
-0.26666666666666666
40
-0.23333333333333331
40
-0.19999999999999998
40
-0.16666666666666666
40
-0.13333333333333333
40
-0.10000000000000001
40
-0.066666666666666666
40
-0.033333333333333333
40
-0
40
-0
40
-0
40
-0
40
-0
40
-0
10
5.5045537988978568
20
3.6274347389969739
30
0
10
5.53859148362704
20
3.631580177836859
30
0
10
5.6059948298490898
20
3.6370681479317191
30
0
10
5.7043714140463582
20
3.6363460833302201
30
0
10
5.8278942329639829
20
3.6134050760971617
30
0
10
5.9660147751662418
20
3.5338410117554138
30
0
10
6.0847903655039195
20
3.3906728469389358
30
0
10
6.1803777817525853
20
3.1777793408225481
30
0
10
6.246425399658218
20
2.9021913572308473
30
0
10
6.2750981328126247
20
2.5821122882289282
30
0
10
6.2589902038355323
20
2.2422908560231138
30
0
10
6.1926879822224015
20
1.9104175060012887
30
0
10
6.0746357421697903
20
1.612961762975478
30
0
10
5.9085921383112741
20
1.3716398846804494
30
0
10
5.7061035700103737
20
1.198597237280373
30
0
10
5.4849182912091852
20
1.0966530595117034
30
0
10
5.2650265518418529
20
1.062549591485427
30
0
10
5.0652650663057557
20
1.0893360542524491
30
0
10
4.9000867841702158
20
1.1688305893511821
30
0
10
4.7752368941659125
20
1.2945953279924307
30
0
10
4.6884129439994933
20
1.4620336510614564
30
0
10
4.6331452943938132
20
1.6665842759136651
30
0
10
4.6017117569278323
20
1.902450211721304
30
0
10
4.5883221182765146
20
2.1611697772950156
30
0
10
4.5924713441786995
20
2.4300230701023833
30
0
10
4.6172569748391386
20
2.6940448061656275
30
0
10
4.6673349453983217
20
2.9382463932350373
30
0
10
4.7469196969906102
20
3.1499111699215949
30
0
10
4.8579872382692475
20
3.3205249437461841
30
0
10
4.9978143234583907
20
3.4487599481642977
30
0
10
5.1590132954921302
20
3.5395845824488155
30
0
10
5.2973439281495835
20
3.5876914112295157
30
0
10
5.4017687214739896
20
3.6121955148924094
30
0
10
5.4705161141686727
20
3.6232893001570901
30
0
10
5.5045537988978568
20
3.6274347389969739
30
0
0
LWPOLYLINE
5
101
100
AcDbEntity
8
0
100
AcDbPolyline
90
12
70
1
43
0.0
10
-0.3853171995225213
20
1.2710226758242893
10
-1.699999962002039
20
0.69999998435378075
10
-1.5966564992663523
20
-1.8835865840383759
10
-0.3253129722290049
20
-1.2457444775417819
10
-0.35069281688598464
20
-0.61124836111731806
10
-1.1021770406912057
20
-0.98827335091521695
10
-1.1173917875705275
20
-0.60790467893218347
10
-0.50116317494180773
20
-0.29873839302790972
10
-0.52310650058916219
20
0.2498447481559557
10
-1.1095316407135813
20
-0.044368923227711687
10
-1.12862181205034
20
0.43288536019127133
10
-0.36123644981699621
20
0.66900393318614637
0
LWPOLYLINE
5
102
100
AcDbEntity
8
0
100
AcDbPolyline
90
11
70
1
43
0.0
10
6.8999998457729816
20
3.7999999150633812
10
6.2999998591840267
20
3.7999999150633812
10
6.4999998547136792
20
2.8999999351799306
10
6.4999998547136784
20
1.3999999687075617
10
6.9999998435378075
20
1.3999999687075615
10
6.8999998457729816
20
2.799999937415123
10
7.6999998278915882
20
1.4999999664723873
10
7.9999998211860657
20
1.4999999664723873
10
7.9999998211860657
20
3.899999912828207
10
7.4999998323619366
20
3.899999912828207
10
7.4999998323619366
20
2.799999937415123
0
SPLINE
5
103
100
AcDbEntity
8
0
100
AcDbSpline
70
1064
71
5
72
38
73
32
74
0
42
0.000000001
43
0.0000000001
44
0.0000000001
40
-0.67383047932390161
40
-0.67383047932390161
40
-0.67383047932390161
40
-0.67383047932390161
40
-0.67383047932390161
40
-0.67383047932390161
40
-0.65000000000000024
40
-0.62500000000000022
40
-0.6000000000000002
40
-0.57500000000000018
40
-0.55000000000000016
40
-0.52500000000000013
40
-0.50000000000000011
40
-0.47500000000000014
40
-0.45000000000000012
40
-0.4250000000000001
40
-0.40000000000000008
40
-0.37500000000000006
40
-0.35000000000000003
40
-0.32500000000000001
40
-0.29999999999999999
40
-0.27499999999999997
40
-0.24999999999999997
40
-0.22499999999999998
40
-0.19999999999999998
40
-0.17499999999999999
40
-0.14999999999999999
40
-0.125
40
-0.10000000000000001
40
-0.075000000000000011
40
-0.050000000000000003
40
-0.025000000000000001
40
-0
40
-0
40
-0
40
-0
40
-0
40
-0
10
-5.9866836680347921
20
-1.2381683533805381
30
0
10
-5.973302377498019
20
-1.2388344766973387
30
0
10
-5.9356485810351325
20
-1.2439395431065352
30
0
10
-5.8477061753284945
20
-1.2696189185494609
30
0
10
-5.6783863769799838
20
-1.3593119589309544
30
0
10
-5.4352614129601031
20
-1.5818685615957551
30
0
10
-5.2288966111353909
20
-1.9107398813593599
30
0
10
-5.1284828772480742
20
-2.3163632445261246
30
0
10
-5.1815414312097658
20
-2.7587760210982815
30
0
10
-5.3977429963041192
20
-3.1925263709739844
30
0
10
-5.755258593368703
20
-3.5714739639865249
30
0
10
-6.2108659290640365
20
-3.8532590824400668
30
0
10
-6.7086770792551462
20
-4.0039607411235192
30
0
10
-7.189267131607795
20
-4.0025735219051448
30
0
10
-7.5988434738512387
20
-3.8459411683806537
30
0
10
-7.8978352577765616
20
-3.5528221386201326
30
0
10
-8.0712981807951181
20
-3.1704072122421234
30
0
10
-8.1253070021329279
20
-2.7625550481184407
30
0
10
-8.0806491509983189
20
-2.394591857484349
30
0
10
-7.9675017160216779
20
-2.1191037923356699
30
0
10
-7.8198105489576761
20
-1.9617720214659731
30
0
10
-7.6696832294532165
20
-1.9058986662021855
30
0
10
-7.542182282803557
20
-1.8809092064324942
30
0
10
-7.4542682046133688
20
-1.8021616669022453
30
0
10
-7.4136335672767633
20
-1.6024086231457435
30
0
10
-7.4169733918067635
20
-1.2756368193035015
30
0
10
-7.4511235529116906
20
-0.87293491541446822
30
0
10
-7.4959928271148257
20
-0.47117770675833426
30
0
10
-7.5206429917721653
20
-0.21405636273648315
30
0
10
-7.520779803855369
20
-0.0826421001774508
30
0
10
-7.5091559092847362
20
-0.023185154486633167
30
0
10
-7.500000111758709
20
0
30
0
0
SPLINE
5
104
100
AcDbEntity
8
0
100
AcDbSpline
70
1064
71
5
72
23
73
17
74
0
42
0.000000001
43
0.0000000001
44
0.0000000001
40
-1
40
-1
40
-1
40
-1
40
-1
40
-1
40
-0.97500000000000053
40
-0.95000000000000051
40
-0.92500000000000049
40
-0.90000000000000047
40
-0.87500000000000044
40
-0.85000000000000042
40
-0.8250000000000004
40
-0.80000000000000038
40
-0.77500000000000036
40
-0.75000000000000033
40
-0.72500000000000031
40
-0.7066011616804857
40
-0.7066011616804857
40
-0.7066011616804857
40
-0.7066011616804857
40
-0.7066011616804857
40
-0.7066011616804857
10
-7.500000111758709
20
0
30
0
10
-7.4908443142326817
20
0.023185154486632678
30
0
10
-7.4658450186992065
20
0.056468826742347655
30
0
10
-7.4057925264467546
20
0.070103358843427777
30
0
10
-7.2713694181518749
20
0.042007614143602941
30
0
10
-7.0007717428036011
20
0.024819239443686768
30
0
10
-6.6426146667585542
20
0.08080726386245872
30
0
10
-6.2356149577139606
20
0.21772952060222203
30
0
10
-5.8849018800583721
20
0.24092137882505715
30
0
10
-5.6686343564558701
20
0.034614007797926429
30
0
10
-5.5989844426311404
20
-0.33537232908446668
30
0
10
-5.655022740033032
20
-0.75059710557662007
30
0
10
-5.779896401652918
20
-1.0573549565533367
30
0
10
-5.8875154827072596
20
-1.1827887189670987
30
0
10
-5.9492852801100549
20
-1.2232227946777254
30
0
10
-5.9771683613039031
20
-1.2350618613175002
30
0
10
-5.9866836680322049
20
-1.2381683533796939
30
0
0
LWPOLYLINE
5
105
100
AcDbEntity
8
0
100
AcDbPolyline
90
6
70
1
43
0.0
10
-4.4118030274531463
20
-0.29999999329447746
10
-4.9999998882412919
20
-0.39999999105930328
10
-4.8999998904764661
20
-2.8999999351799488
10
-3.5999999195337296
20
-2.4999999441206455
10
-3.6246807981202545
20
-1.8829779794575274
10
-4.4118030274531463
20
-2.1914889617890863
0
LWPOLYLINE
5
106
100
AcDbEntity
8
0
100
AcDbPolyline
90
13
70
1
43
0.0
10
0.89999997988343239
20
2.1999999508261681
10
0.29999999329447746
20
1.9999999552965164
10
0.39999999105930328
20
1.5999999642372131
10
0.4999999888241291
20
-0.89999997988343239
10
0.99999997764825821
20
-0.59999998658895493
10
0.89999997988343239
20
1.099999975413084
10
1.3999999687075615
20
0.39999999105930328
10
1.8999999575316906
20
1.4999999664723873
10
1.8999999575316906
20
-0.15714285363044089
10
2.4999999441206455
20
0.099999997764825821
10
2.3999999463558197
20
2.8999999351799488
10
1.8482820559756923
20
2.6635494107313233
10
1.3768661112965574
20
1.5499999653548002
0
LWPOLYLINE
5
107
100
AcDbEntity
8
0
100
AcDbPolyline
90
9
70
1
43
0.0
10
-2.9927704409556579
20
-1.5156718405334424
10
-3.0999999307096004
20
0.19999999552965164
10
-3.5999999195337296
20
0
10
-3.5061717784925217
20
-1.6889065387417377
42
0.48962962089073359
10
-2.7054773417064624
20
-2.2421909107545646
10
-1.8430169320131862
20
-1.8972067468772547
10
-1.8430169320131862
20
0.59999998658895493
10
-2.4927069010637446
20
0.34012399896873158
10
-2.3930454250996314
20
-1.4537825683852759
42
-0.95375232518501363
0
SPLINE
5
108
100
AcDbEntity
8
0
100
AcDbSpline
70
1064
71
5
72
41
73
35
74
0
42
0.000000001
43
0.0000000001
44
0.0000000001
40
-1
40
-1
40
-1
40
-1
40
-1
40
-1
40
-0.96666666666666656
40
-0.93333333333333324
40
-0.89999999999999991
40
-0.86666666666666659
40
-0.83333333333333326
40
-0.79999999999999993
40
-0.76666666666666661
40
-0.73333333333333328
40
-0.69999999999999996
40
-0.66666666666666663
40
-0.6333333333333333
40
-0.59999999999999998
40
-0.56666666666666665
40
-0.53333333333333333
40
-0.49999999999999994
40
-0.46666666666666662
40
-0.43333333333333329
40
-0.39999999999999997
40
-0.36666666666666664
40
-0.33333333333333331
40
-0.29999999999999999
40
-0.26666666666666666
40
-0.23333333333333331
40
-0.19999999999999998
40
-0.16666666666666666
40
-0.13333333333333333
40
-0.10000000000000001
40
-0.066666666666666666
40
-0.033333333333333333
40
-0
40
-0
40
-0
40
-0
40
-0
40
-0
10
3.5999999195337296
20
2.9999999329447746
30
0
10
3.6340376042629652
20
3.0041453717846922
30
0
10
3.7014409504851118
20
3.0096333418796135
30
0
10
3.79981753468254
20
3.008911277278203
30
0
10
3.9233403536002158
20
2.9859702700451747
30
0
10
4.061460895802381
20
2.9064062057033691
30
0
10
4.1802364861398367
20
2.7632380408867623
30
0
10
4.2758239023883
20
2.5503445347702569
30
0
10
4.3418715202938118
20
2.2747565511784833
30
0
10
4.3705442534482
20
1.9546774821765533
30
0
10
4.3544363244711723
20
1.6148560499707763
30
0
10
4.2881341028581508
20
1.2829826999490135
30
0
10
4.1700818628056444
20
0.98552695692326342
30
0
10
4.0040382589471921
20
0.74420507862827601
30
0
10
3.8015496906463171
20
0.57116243122821653
30
0
10
3.5803644118451206
20
0.46921825345954371
30
0
10
3.3604726724777647
20
0.43511478543325371
30
0
10
3.16071118694164
20
0.4619012482002563
30
0
10
2.9955329048060753
20
0.54139578329896476
30
0
10
2.8706830148017453
20
0.6671605219401906
30
0
10
2.7838590646353167
20
0.83459884500920412
30
0
10
2.7285914150296482
20
1.0391494698614212
30
0
10
2.6971578775636926
20
1.275015405669093
30
0
10
2.6837682389124335
20
1.5337349712428585
30
0
10
2.6879174648146731
20
1.8025882640502808
30
0
10
2.712703095475169
20
2.0666100001135588
30
0
10
2.762781066034361
20
2.3108115871829589
30
0
10
2.842365817626566
20
2.5224763638694494
30
0
10
2.9534333589050443
20
2.693090137693932
30
0
10
3.0932604440939944
20
2.8213251421119283
30
0
10
3.2544594161276419
20
2.9121497763963902
30
0
10
3.3927900487851748
20
2.9602566051771335
30
0
10
3.4972148421097025
20
2.984760708840108
30
0
10
3.5659622348044948
20
2.9958544941048553
30
0
10
3.5999999195337296
20
2.9999999329447746
30
0
0
SPLINE
5
109
100
AcDbEntity
8
0
100
AcDbSpline
70
1064
71
5
72
29
73
23
74
0
42
0.000000001
43
0.0000000001
44
0.0000000001
40
0.48698608577296265
40
0.48698608577296265
40
0.48698608577296265
40
0.48698608577296265
40
0.48698608577296265
40
0.48698608577296265
40
0.4947368421052627
40
0.50526315789473641
40
0.51578947368421013
40
0.52631578947368385
40
0.53684210526315757
40
0.54736842105263128
40
0.557894736842105
40
0.56842105263157872
40
0.57894736842105243
40
0.58947368421052615
40
0.59999999999999987
40
0.61052631578947358
40
0.6210526315789473
40
0.63157894736842102
40
0.64210526315789473
40
0.65263157894736845
40
0.66315789473684217
40
0.66509031594196755
40
0.66509031594196755
40
0.66509031594196755
40
0.66509031594196755
40
0.66509031594196755
40
0.66509031594196755
10
7.0602384298090781
20
0.1281701443880495
30
0
10
7.0727513418596635
20
0.10002302045332476
30
0
10
7.1153378445018323
20
0.035446747505528849
30
0
10
7.2412584801483035
20
-0.05360090094872641
30
0
10
7.5785378078603252
20
-0.11350300082477831
30
0
10
8.1018844358551352
20
-0.035582554218420825
30
0
10
8.4961783000057256
20
0.24869581312982877
30
0
10
8.5583772944010921
20
0.72187192211580553
30
0
10
8.53796343742024
20
1.3345189686316301
30
0
10
8.5343782815878093
20
2.0290275377713813
30
0
10
8.5798892910392599
20
2.7436187394495057
30
0
10
8.6447450767584133
20
3.4182941465072245
30
0
10
8.6694800291035321
20
4.0000827981825902
30
0
10
8.5865698907575503
20
4.4488570610490958
30
0
10
8.3447321215155874
20
4.7422724674337342
30
0
10
7.9370452174974746
20
4.8827501797056634
30
0
10
7.3956340628809087
20
4.8929654477668585
30
0
10
6.7746058983435651
20
4.807536364755121
30
0
10
6.2412344600490481
20
4.6891812545520271
30
0
10
5.85600109804124
20
4.5894208019510785
30
0
10
5.608094831609983
20
4.521171756610272
30
0
10
5.4789814056373984
20
4.484686065344845
30
0
10
5.4590831527304751
20
4.4790406788998567
30
0
0
SPLINE
5
110
100
AcDbEntity
8
0
100
AcDbSpline
70
1064
71
5
72
43
73
37
74
0
42
0.000000001
43
0.0000000001
44
0.0000000001
40
0.66509031594196755
40
0.66509031594196755
40
0.66509031594196755
40
0.66509031594196755
40
0.66509031594196755
40
0.66509031594196755
40
0.67368421052631589
40
0.6842105263157896
40
0.69473684210526332
40
0.70526315789473704
40
0.71578947368421075
40
0.72631578947368447
40
0.73684210526315819
40
0.7473684210526319
40
0.75789473684210562
40
0.76842105263157934
40
0.77894736842105305
40
0.78947368421052677
40
0.80000000000000049
40
0.81052631578947421
40
0.82105263157894792
40
0.83157894736842164
40
0.84210526315789536
40
0.85263157894736907
40
0.86315789473684279
40
0.87368421052631651
40
0.88421052631579022
40
0.89473684210526394
40
0.90526315789473766
40
0.91578947368421137
40
0.92631578947368509
40
0.93684210526315881
40
0.94736842105263253
40
0.95789473684210624
40
0.96842105263157996
40
0.97894736842105368
40
0.98947368421052739
40
1
40
1
40
1
40
1
40
1
40
1
10
5.4590831527304751
20
4.4790406788998567
30
0
10
5.3705913231845903
20
4.4539344257354543
30
0
10
5.1793407093425561
20
4.3986816789077734
30
0
10
4.9031803626851875
20
4.3161352147782681
30
0
10
4.5716830489108364
20
4.2133638084490439
30
0
10
4.2045166761781418
20
4.0945404604785631
30
0
10
3.8394136160645291
20
3.9693778202139063
30
0
10
3.4484690915603378
20
3.8261045719201192
30
0
10
2.9989124965558562
20
3.6511138760560895
30
0
10
2.4816793212025154
20
3.44020786674256
30
0
10
1.9105990072220838
20
3.1986281490196946
30
0
10
1.3126340923997923
20
2.9371888234598984
30
0
10
0.72082894907811956
20
2.6695923322529702
30
0
10
0.1662549706319737
20
2.4093019288061144
30
0
10
-0.32987324333685852
20
2.1665038829708219
30
0
10
-0.7635493919798706
20
1.9452670681755864
30
0
10
-1.1571968392947398
20
1.7399799342550304
30
0
10
-1.5496234197024796
20
1.5392927073988827
30
0
10
-1.9831517925269349
20
1.3311718432742767
30
0
10
-2.4919476341742399
20
1.1074642429458934
30
0
10
-3.0894034159714097
20
0.86888431596997495
30
0
10
-3.756937741188187
20
0.62932247549070008
30
0
10
-4.4294514383071544
20
0.42178171898171607
30
0
10
-5.0218390929280812
20
0.2846952133814703
30
0
10
-5.4574233865916932
20
0.24757884106925171
30
0
10
-5.6990531581016661
20
0.31482944887810815
30
0
10
-5.7715112529272714
20
0.45502050017342854
30
0
10
-5.806477570389303
20
0.57606500402564098
30
0
10
-6.0036600283175439
20
0.55377920812216719
30
0
10
-6.3988837175977595
20
0.39122404389159893
30
0
10
-6.7988150387911173
20
0.25663053586642587
30
0
10
-6.9900684770515138
20
0.32225759378356
30
0
10
-6.8935114562752648
20
0.63494729249150184
30
0
10
-6.7789265484251873
20
0.9137412011170486
30
0
10
-6.834424803484338
20
0.99774872839568762
30
0
10
-6.9285119796154042
20
1.0175072021974993
30
0
10
-6.9871301275051891
20
1.0214728841113365
30
0
0
SPLINE
5
111
100
AcDbEntity
8
0
100
AcDbSpline
70
1064
71
5
72
34
73
28
74
0
42
0.000000001
43
0.0000000001
44
0.0000000001
40
0
40
0
40
0
40
0
40
0
40
0
40
0.010526315789473684
40
0.021052631578947368
40
0.031578947368421054
40
0.042105263157894736
40
0.052631578947368418
40
0.063157894736842107
40
0.073684210526315796
40
0.084210526315789486
40
0.094736842105263175
40
0.10526315789473686
40
0.11578947368421055
40
0.12631578947368424
40
0.13684210526315793
40
0.14736842105263162
40
0.15789473684210531
40
0.168421052631579
40
0.17894736842105269
40
0.18947368421052638
40
0.20000000000000007
40
0.21052631578947376
40
0.22105263157894744
40
0.23157894736842113
40
0.23677312454276647
40
0.23677312454276647
40
0.23677312454276647
40
0.23677312454276647
40
0.23677312454276647
40
0.23677312454276647
10
-6.9871301275051891
20
1.0214728841113365
30
0
10
-7.0457482753949794
20
1.0254385660251744
30
0
10
-7.1861336908234295
20
1.0215428198787619
30
0
10
-7.4499740227188438
20
0.99910635739011588
30
0
10
-7.7961219108402933
20
1.0290690416555324
30
0
10
-8.1559582115574276
20
1.0034914823922798
30
0
10
-8.3950417646873667
20
0.7515576118847096
30
0
10
-8.5151573529231399
20
0.22324017880631253
30
0
10
-8.5189103909198156
20
-0.38734952003804257
30
0
10
-8.4551014156773121
20
-0.98647477966608321
30
0
10
-8.3812623029245241
20
-1.4868947444181853
30
0
10
-8.3530756470855234
20
-1.8521471525517261
30
0
10
-8.4045923125466899
20
-2.0815074375516538
30
0
10
-8.5274741920163031
20
-2.2252879570322075
30
0
10
-8.6661551039939724
20
-2.3719952291408526
30
0
10
-8.7532696730746231
20
-2.6053286816686154
30
0
10
-8.7434027272811043
20
-2.9557013443318163
30
0
10
-8.6248444549707308
20
-3.3906431469704024
30
0
10
-8.4053003189238282
20
-3.845634701239129
30
0
10
-8.104674395845846
20
-4.2445496449140983
30
0
10
-7.7455582291352254
20
-4.5225738729405744
30
0
10
-7.3431792804994833
20
-4.6525657396066
30
0
10
-6.9049966013474693
20
-4.6422521584969356
30
0
10
-6.4817488449475338
20
-4.5331104090765919
30
0
10
-6.1331612573105527
20
-4.4050887415951987
30
0
10
-5.874650791526407
20
-4.3022770187247614
30
0
10
-5.7165136542420818
20
-4.2383641406366248
30
0
10
-5.6639114198731688
20
-4.2170489325508518
30
0
0
SPLINE
5
112
100
AcDbEntity
8
0
100
AcDbSpline
70
1064
71
5
72
33
73
27
74
0
42
0.000000001
43
0.0000000001
44
0.0000000001
40
0.2367731245428101
40
0.2367731245428101
40
0.2367731245428101
40
0.2367731245428101
40
0.2367731245428101
40
0.2367731245428101
40
0.24210526315789482
40
0.25263157894736848
40
0.26315789473684215
40
0.27368421052631581
40
0.28421052631578947
40
0.29473684210526313
40
0.30526315789473679
40
0.31578947368421045
40
0.32631578947368411
40
0.33684210526315778
40
0.34736842105263144
40
0.3578947368421051
40
0.36842105263157876
40
0.37894736842105242
40
0.38947368421052608
40
0.39999999999999974
40
0.41052631578947341
40
0.42105263157894707
40
0.43157894736842073
40
0.44210526315789439
40
0.45263157894736805
40
0.46237542140317905
40
0.46237542140317905
40
0.46237542140317905
40
0.46237542140317905
40
0.46237542140317905
40
0.46237542140317905
10
-5.6639114198709573
20
-4.2170489325499565
30
0
10
-5.60991202868661
20
-4.1951675757329205
30
0
10
-5.4482063462196182
20
-4.1294694565518073
30
0
10
-5.173828456673033
20
-4.0180003267005073
30
0
10
-4.7786387664271999
20
-3.8625197112499903
30
0
10
-4.2553089360632637
20
-3.672063663446739
30
0
10
-3.6641200620645327
20
-3.4746539532098488
30
0
10
-3.0714498897425413
20
-3.2848838452344249
30
0
10
-2.4848642628098947
20
-3.0916954439682929
30
0
10
-1.9088038138243504
20
-2.8824448886200682
30
0
10
-1.3432293609063259
20
-2.6459968793638984
30
0
10
-0.78151662751279516
20
-2.3764738107616528
30
0
10
-0.21119849964149146
20
-2.0743231190543918
30
0
10
0.38247577900972218
20
-1.7447052145984592
30
0
10
1.0137647397641643
20
-1.3966184267647144
30
0
10
1.6933098258574895
20
-1.0417227392516932
30
0
10
2.4252242573415379
20
-0.69330161740377638
30
0
10
3.2039313555859912
20
-0.36515036693650349
30
0
10
4.0114629685589422
20
-0.070533013648769988
30
0
10
4.8136872013163039
20
0.17897712319808454
30
0
10
5.5596820072407773
20
0.37434974719462827
30
0
10
6.1952579930072975
20
0.50888672415238356
30
0
10
6.6661800825111319
20
0.57701093839184103
30
0
10
6.8998947791895668
20
0.57913327283631266
30
0
10
6.9962102060736076
20
0.55142842772466882
30
0
10
7.0318420926076577
20
0.5207208705243066
30
0
10
7.0434565800577982
20
0.50310404143270337
30
0
0
SPLINE
5
113
100
AcDbEntity
8
0
100
AcDbSpline
70
1064
71
5
72
14
73
8
74
0
42
0.000000001
43
0.0000000001
44
0.0000000001
40
0.46237542140317917
40
0.46237542140317917
40
0.46237542140317917
40
0.46237542140317917
40
0.46237542140317917
40
0.46237542140317917
40
0.46315789473684171
40
0.47368421052631537
40
0.4740904787420912
40
0.4740904787420912
40
0.4740904787420912
40
0.4740904787420912
40
0.4740904787420912
40
0.4740904787420912
10
7.0434565800577973
20
0.50310404143270249
30
0
10
7.0443892743983625
20
0.50168933270250848
30
0
10
7.057355260839917
20
0.48097692546828658
30
0
10
7.0631941942075667
20
0.45553845439697338
30
0
10
7.0627119517259773
20
0.42601931721807329
30
0
10
7.0579780980400297
20
0.39246792460939595
30
0
10
7.0525774178960754
20
0.35820042933523188
30
0
10
7.0523755059710922
20
0.35692295309260574
30
0
0
ARC
5
114
100
AcDbEntity
8
0
100
AcDbCircle
10
5.3157478419052495e-12
20
1.584843367652411e-13
30
0
40
7.0614017214424436
100
AcDbArc
50
1.0400217846291329
51
2.8972854892060571
0
SPLINE
5
115
100
AcDbEntity
8
0
100
AcDbSpline
70
1064
71
5
72
31
73
25
74
0
42
0.000000001
43
0.0000000001
44
0.0000000001
40
0
40
0
40
0
40
0
40
0
40
0
40
0.050000000000000003
40
0.10000000000000001
40
0.15000000000000002
40
0.20000000000000001
40
0.25
40
0.29999999999999999
40
0.34999999999999998
40
0.39999999999999997
40
0.44999999999999996
40
0.49999999999999994
40
0.54999999999999993
40
0.59999999999999998
40
0.65000000000000002
40
0.70000000000000007
40
0.75000000000000011
40
0.80000000000000016
40
0.8500000000000002
40
0.90000000000000024
40
0.95000000000000029
40
1
40
1
40
1
40
1
40
1
40
1
10
3.5343146377057808
20
2.4725481713711455
30
0
10
3.513405371832818
20
2.4717524220003737
30
0
10
3.4715445835982308
20
2.4615406085737641
30
0
10
3.4097510163955209
20
2.4203481329263772
30
0
10
3.3336365367003156
20
2.3166631455025923
30
0
10
3.2580644493410968
20
2.1240574358094753
30
0
10
3.2091407563404655
20
1.8933349907939026
30
0
10
3.1913498144385826
20
1.6518162803552936
30
0
10
3.206095713838411
20
1.4254343741372346
30
0
10
3.2508667722378748
20
1.234154406284375
30
0
10
3.3200182985518234
20
1.0918050811849513
30
0
10
3.406013687086797
20
1.0071630179960143
30
0
10
3.5004295760190307
20
0.98448965933052346
30
0
10
3.5950634495142224
20
1.0241448935516964
30
0
10
3.6828778458285516
20
1.1230546384519211
30
0
10
3.7577064397757143
20
1.2746622254366717
30
0
10
3.81332135190726
20
1.4689556881970687
30
0
10
3.8440376242507215
20
1.6920044716990665
30
0
10
3.8417014985088729
20
1.9263977543388462
30
0
10
3.8032078838945429
20
2.1487505297537397
30
0
10
3.7330821105707042
20
2.3328083237872024
30
0
10
3.6584134376404176
20
2.4299247482799475
30
0
10
3.5970001788360073
20
2.4663151047983951
30
0
10
3.5552239035787436
20
2.4733439207419172
30
0
10
3.5343146377057808
20
2.4725481713711455
30
0
0
SPLINE
5
116
100
AcDbEntity
8
0
100
AcDbSpline
70
1064
71
5
72
31
73
25
74
0
42
0.000000001
43
0.0000000001
44
0.0000000001
40
0
40
0
40
0
40
0
40
0
40
0
40
0.050000000000000003
40
0.10000000000000001
40
0.15000000000000002
40
0.20000000000000001
40
0.25
40
0.29999999999999999
40
0.34999999999999998
40
0.39999999999999997
40
0.44999999999999996
40
0.49999999999999994
40
0.54999999999999993
40
0.59999999999999998
40
0.65000000000000002
40
0.70000000000000007
40
0.75000000000000011
40
0.80000000000000016
40
0.8500000000000002
40
0.90000000000000024
40
0.95000000000000029
40
1
40
1
40
1
40
1
40
1
40
1
10
5.4218207875066673
20
3.0797422452960621
30
0
10
5.4009115216336276
20
3.0789464959252619
30
0
10
5.3590507333988979
20
3.0687346824985995
30
0
10
5.2972571661959229
20
3.0275422068511189
30
0
10
5.2211426865006061
20
2.923857219427286
30
0
10
5.1455705991414469
20
2.7312515097341872
30
0
10
5.0966469061410669
20
2.5005290647187066
30
0
10
5.0788559642394482
20
2.2590103542802003
30
0
10
5.0936018636394405
20
2.0326284480622121
30
0
10
5.1383729220389363
20
1.8413484802093696
30
0
10
5.2075244483528316
20
1.6989991551099257
30
0
10
5.2935198368877181
20
1.6143570919209527
30
0
10
5.3879357258199034
20
1.591683733255437
30
0
10
5.4825695993151049
20
1.6313389674766099
30
0
10
5.570383995629471
20
1.7302487123768522
30
0
10
5.6452125895766514
20
1.8818562993616128
30
0
10
5.7008275017081775
20
2.076149762122002
30
0
10
5.731543774051576
20
2.299198545623971
30
0
10
5.729207648309794
20
2.5335918282637793
30
0
10
5.6907140336956763
20
2.7559446036787616
30
0
10
5.6205882603720294
20
2.940002397712298
30
0
10
5.545919587441678
20
3.0371188222050103
30
0
10
5.4845063286371296
20
3.0735091787233983
30
0
10
5.4427300533797043
20
3.080537994666861
30
0
10
5.4218207875066673
20
3.0797422452960621
30
0
0
SPLINE
5
117
100
AcDbEntity
8
0
100
AcDbSpline
70
1064
71
5
72
45
73
39
74
0
42
0.000000001
43
0.0000000001
44
0.0000000001
40
0.063803314531532415
40
0.063803314531532415
40
0.063803314531532415
40
0.063803314531532415
40
0.063803314531532415
40
0.063803314531532415
40
0.071428571428571425
40
0.085714285714285715
40
0.10000000000000001
40
0.1142857142857143
40
0.12857142857142859
40
0.14285714285714288
40
0.15714285714285717
40
0.17142857142857146
40
0.18571428571428575
40
0.20000000000000004
40
0.21428571428571433
40
0.22857142857142862
40
0.24285714285714291
40
0.25714285714285717
40
0.27142857142857146
40
0.28571428571428575
40
0.30000000000000004
40
0.31428571428571433
40
0.32857142857142863
40
0.34285714285714292
40
0.35714285714285721
40
0.3714285714285715
40
0.38571428571428579
40
0.40000000000000008
40
0.41428571428571437
40
0.42857142857142866
40
0.44285714285714295
40
0.45714285714285724
40
0.47142857142857153
40
0.48571428571428582
40
0.50000000000000011
40
0.51428571428571435
40
0.52857142857142858
40
0.53425132700418831
40
0.53425132700418831
40
0.53425132700418831
40
0.53425132700418831
40
0.53425132700418831
40
0.53425132700418831
10
-6.6866584708787347
20
-2.2698001598138582
30
0
10
-6.6936151480524284
20
-2.2595639071825677
30
0
10
-6.7140641177455684
20
-2.230863413087441
30
0
10
-6.7496659234248311
20
-2.1875008462509178
30
0
10
-6.8008986798227102
20
-2.1411813221682712
30
0
10
-6.8601833466765587
20
-2.1238618632934867
30
0
10
-6.9054154987563932
20
-2.1768813992494729
30
0
10
-6.9236861540328922
20
-2.308193293651231
30
0
10
-6.9177280025557799
20
-2.5011485991615245
30
0
10
-6.8970663642772356
20
-2.7241163351376079
30
0
10
-6.8750376179703405
20
-2.9389057141655255
30
0
10
-6.8659650340903591
20
-3.1088074863095407
30
0
10
-6.8821102349403649
20
-3.2071647270453645
30
0
10
-6.931093202392967
20
-3.2248556330721896
30
0
10
-7.0121879979993826
20
-3.1806364822118391
30
0
10
-7.1171935275978102
20
-3.1108563454595521
30
0
10
-7.2296857795226561
20
-3.0433566458140211
30
0
10
-7.3303336886177037
20
-2.9919620238254723
30
0
10
-7.3866672256495525
20
-2.9063386779706564
30
0
10
-7.3966116417829841
20
-2.7693680723596947
30
0
10
-7.3835898417960646
20
-2.6072726728250846
30
0
10
-7.3762836948894019
20
-2.459977629254773
30
0
10
-7.3993806250914265
20
-2.370348881768555
30
0
10
-7.4490562648376022
20
-2.3606707256283341
30
0
10
-7.5093526119579703
20
-2.4295173588668644
30
0
10
-7.5658603237047215
20
-2.5627870524965206
30
0
10
-7.6030956726175702
20
-2.7374994112475903
30
0
10
-7.6083664381730012
20
-2.9281281048777528
30
0
10
-7.5732106937007142
20
-3.112701362586729
30
0
10
-7.494010704158133
20
-3.2743804891738209
30
0
10
-7.3711563843428971
20
-3.4005127105384885
30
0
10
-7.2087286905783534
20
-3.482519212169918
30
0
10
-7.0139842827756684
20
-3.5154425610160112
30
0
10
-6.7968953825033607
20
-3.4976408908200436
30
0
10
-6.5971230898916966
20
-3.4385335565165005
30
0
10
-6.4449790961457261
20
-3.3666103534959841
30
0
10
-6.3419848059712383
20
-3.3041722168694276
30
0
10
-6.2840599777102017
20
-3.2641364855248596
30
0
10
-6.2677664327256082
20
-3.2524603328039987
30
0
0
SPLINE
5
118
100
AcDbEntity
8
0
100
AcDbSpline
70
1064
71
5
72
44
73
38
74
0
42
0.000000001
43
0.0000000001
44
0.0000000001
40
0.53425132700418831
40
0.53425132700418831
40
0.53425132700418831
40
0.53425132700418831
40
0.53425132700418831
40
0.53425132700418831
40
0.54285714285714282
40
0.55714285714285705
40
0.57142857142857129
40
0.58571428571428552
40
0.59999999999999976
40
0.61428571428571399
40
0.62857142857142823
40
0.64285714285714246
40
0.6571428571428567
40
0.67142857142857093
40
0.68571428571428517
40
0.6999999999999994
40
0.71428571428571364
40
0.72857142857142787
40
0.74285714285714211
40
0.75714285714285634
40
0.77142857142857058
40
0.78571428571428481
40
0.79999999999999905
40
0.81428571428571328
40
0.82857142857142752
40
0.84285714285714175
40
0.85714285714285599
40
0.87142857142857022
40
0.88571428571428445
40
0.89999999999999869
40
0.91428571428571292
40
0.92857142857142716
40
0.94285714285714139
40
0.95714285714285563
40
0.97142857142856986
40
0.9857142857142841
40
1
40
1
40
1
40
1
40
1
40
1
10
-6.2677664327256082
20
-3.2524603328039987
30
0
10
-6.2430795040086231
20
-3.2347693791053982
30
0
10
-6.1785426719445677
20
-3.1859610665306803
30
0
10
-6.0791829907483761
20
-3.0994492955847623
30
0
10
-5.9572131950136287
20
-2.9654221326248251
30
0
10
-5.8374072779725692
20
-2.7754804795226935
30
0
10
-5.7596565705826333
20
-2.5565171076600146
30
0
10
-5.7392487645846133
20
-2.3353600540149113
30
0
10
-5.7761549118401936
20
-2.1224433299681786
30
0
10
-5.8638871513059412
20
-1.9278645071089668
30
0
10
-5.9903729422822005
20
-1.7605964330987183
30
0
10
-6.1401782634196831
20
-1.6274415674178462
30
0
10
-6.2963056594509803
20
-1.5320742936922096
30
0
10
-6.44217795931125
20
-1.4740169361975988
30
0
10
-6.5635126012241027
20
-1.4476976771596484
30
0
10
-6.6503154068142853
20
-1.441324381477912
30
0
10
-6.698629653342854
20
-1.4362581658707108
30
0
10
-6.709506544190166
20
-1.4143713035906891
30
0
10
-6.6881224246322679
20
-1.3642310053608917
30
0
10
-6.6429425541359404
20
-1.2891934056929342
30
0
10
-6.5839955824382379
20
-1.2027721954474297
30
0
10
-6.5207924460462792
20
-1.1208265714322925
30
0
10
-6.4606231261401543
20
-1.0556002319398059
30
0
10
-6.406072172902145
20
-1.0071394959732003
30
0
10
-6.3559897758813699
20
-0.96508092016379832
30
0
10
-6.308388791223499
20
-0.91601989168032083
30
0
10
-6.2625713801858938
20
-0.8487567841192869
30
0
10
-6.2220015387799084
20
-0.76139848872659988
30
0
10
-6.1933757713996336
20
-0.65971034058492806
30
0
10
-6.1848576345777335
20
-0.55361322658810863
30
0
10
-6.2047073842811091
20
-0.4545131640362291
30
0
10
-6.2594886532711236
20
-0.37181389876141391
30
0
10
-6.3534044128775662
20
-0.3115144827093152
30
0
10
-6.4889884695741928
20
-0.27727735030108974
30
0
10
-6.6317621736676706
20
-0.27215708351745327
30
0
10
-6.7583122598720617
20
-0.28110689225713736
30
0
10
-6.8513289710946168
20
-0.29275528960569597
30
0
10
-6.8999998457729825
20
-0.29999999329447752
30
0
0
SPLINE
5
119
100
AcDbEntity
8
0
100
AcDbSpline
70
1064
71
5
72
31
73
25
74
0
42
0.000000001
43
0.0000000001
44
0.0000000001
40
0
40
0
40
0
40
0
40
0
40
0
40
0.050000000000000003
40
0.10000000000000001
40
0.15000000000000002
40
0.20000000000000001
40
0.25
40
0.29999999999999999
40
0.34999999999999998
40
0.39999999999999997
40
0.44999999999999996
40
0.49999999999999994
40
0.54999999999999993
40
0.59999999999999998
40
0.65000000000000002
40
0.70000000000000007
40
0.75000000000000011
40
0.80000000000000016
40
0.8500000000000002
40
0.90000000000000024
40
0.95000000000000029
40
0.9842239034993423
40
0.9842239034993423
40
0.9842239034993423
40
0.9842239034993423
40
0.9842239034993423
40
0.9842239034993423
10
-6.8999998457729816
20
-0.29999999329447746
30
0
10
-6.9015726366536914
20
-0.38413674741449932
30
0
10
-6.9040012062612535
20
-0.54598465916763628
30
0
10
-6.9054930531027656
20
-0.76947966084639918
30
0
10
-6.9031623678003839
20
-1.0287625953822999
30
0
10
-6.8928423278500723
20
-1.2881168414187054
30
0
10
-6.8746700720393061
20
-1.4836715210778992
30
0
10
-6.8478999665837108
20
-1.6185932054626613
30
0
10
-6.8114016819096124
20
-1.6994938818550029
30
0
10
-6.7636371168829621
20
-1.7374755170493366
30
0
10
-6.7024859695091843
20
-1.7499751124755771
30
0
10
-6.6262370135927124
20
-1.7575880961761308
30
0
10
-6.5349699793991025
20
-1.779516191402414
30
0
10
-6.4316500102040051
20
-1.8299407376543406
30
0
10
-6.323873203482834
20
-1.9128371157266333
30
0
10
-6.2229352965950744
20
-2.0230706881809555
30
0
10
-6.1417234744882796
20
-2.1502290003698237
30
0
10
-6.0929583423959599
20
-2.2815300126699496
30
0
10
-6.0873944542376091
20
-2.4048824185625808
30
0
10
-6.1316787915465074
20
-2.5122727922755788
30
0
10
-6.2229408455810393
20
-2.5937914369678925
30
0
10
-6.3315389860724993
20
-2.6427128871401639
30
0
10
-6.4301771437490647
20
-2.6701417661936326
30
0
10
-6.4997319874207484
20
-2.684121747170789
30
0
10
-6.5292592126960294
20
-2.6892691209854815
30
0
0
SPLINE
5
120
100
AcDbEntity
8
0
100
AcDbSpline
70
1064
71
5
72
12
73
6
74
0
42
0.000000001
43
0.0000000001
44
0.0000000001
40
0.98422390349939848
40
0.98422390349939848
40
0.98422390349939848
40
0.98422390349939848
40
0.98422390349939848
40
0.98422390349939848
40
1
40
1
40
1
40
1
40
1
40
1
10
-6.5292592126962727
20
-2.6892691209855233
30
0
10
-6.5428702946509318
20
-2.6916418914097613
30
0
10
-6.5567499671813447
20
-2.6939013380040877
30
0
10
-6.5708981450638282
20
-2.6960474831896422
30
0
10
-6.5853147737648152
20
-2.6980803499869022
30
0
10
-6.5999998524785042
20
-2.6999999396502972
30
0
0
SPLINE
5
121
100
AcDbEntity
8
0
100
AcDbSpline
70
1064
71
5
72
13
73
7
74
0
42
0.000000001
43
0.0000000001
44
0.0000000001
40
0
40
0
40
0
40
0
40
0
40
0
40
0.014285714285714285
40
0.020689618802747261
40
0.020689618802747261
40
0.020689618802747261
40
0.020689618802747261
40
0.020689618802747261
40
0.020689618802747261
10
-6.5999998524785042
20
-2.6999999396502972
30
0
10
-6.5926757544635741
20
-2.6844710313156406
30
0
10
-6.5839949247189278
20
-2.6611692147502355
30
0
10
-6.5781044218783062
20
-2.6366912254847086
30
0
10
-6.5750040460263737
20
-2.6110386334448163
30
0
10
-6.5746576118260238
20
-2.5842799921617834
30
0
10
-6.5748126417888795
20
-2.5758946013062367
30
0
0
ARC
5
122
100
AcDbEntity
8
0
100
AcDbCircle
10
-2.7611246622427643e-12
20
-1.0277889650467387e-12
30
0
40
7.0614017214448124
100
AcDbArc
50
198.74988831744847
51
201.39436207229389
0
CIRCLE
5
123
100
AcDbEntity
8
0
100
AcDbCircle
10
0
20
0
30
0
40
0.29999999329447746
0
ENDSEC
0
SECTION
2
OBJECTS
0
DICTIONARY
5
C
100
AcDbDictionary
3
ACAD_GROUP
350
D
3
ACAD_MLINESTYLE
350
17
0
DICTIONARY
5
D
100
AcDbDictionary
0
DICTIONARY
5
1A
330
C
100
AcDbDictionary
0
DICTIONARY
5
17
100
AcDbDictionary
0
ENDSEC
0
EOF
