0
SECTION
2
HEADER
9
$INSUNITS
70
4
9
$ACADVER
1
AC1014
9
$HANDSEED
5
FFFF
0
ENDSEC
0
SECTION
2
TABLES
0
TABLE
2
VPORT
5
8
100
AcDbSymbolTable
0
ENDTAB
0
TABLE
2
LTYPE
5
5
100
AcDbSymbolTable
0
LTYPE
5
14
100
AcDbSymbolTableRecord
100
AcDbLinetypeTableRecord
2
BYBLOCK
70
0
0
LTYPE
5
15
100
AcDbSymbolTableRecord
100
AcDbLinetypeTableRecord
2
BYLAYER
70
0
0
ENDTAB
0
TABLE
2
LAYER
5
2
100
AcDbSymbolTable
70
2
0
LAYER
5
50
100
AcDbSymbolTableRecord
100
AcDbLayerTableRecord
2
0
70
0
6
CONTINUOUS
0
ENDTAB
0
TABLE
2
STYLE
5
3
100
AcDbSymbolTable
70
1
0
STYLE
5
11
100
AcDbSymbolTableRecord
100
AcDbTextStyleTableRecord
2
STANDARD
70
0
0
ENDTAB
0
TABLE
2
VIEW
5
6
100
AcDbSymbolTable
70
0
0
ENDTAB
0
TABLE
2
UCS
5
7
100
AcDbSymbolTable
70
0
0
ENDTAB
0
TABLE
2
APPID
5
9
100
AcDbSymbolTable
70
2
0
APPID
5
12
100
AcDbSymbolTableRecord
100
AcDbRegAppTableRecord
2
ACAD
70
0
0
ENDTAB
0
TABLE
2
DIMSTYLE
5
A
100
AcDbSymbolTable
70
1
0
ENDTAB
0
TABLE
2
BLOCK_RECORD
5
1
100
AcDbSymbolTable
70
1
0
BLOCK_RECORD
5
1F
100
AcDbSymbolTableRecord
100
AcDbBlockTableRecord
2
*MODEL_SPACE
0
BLOCK_RECORD
5
1B
100
AcDbSymbolTableRecord
100
AcDbBlockTableRecord
2
*PAPER_SPACE
0
ENDTAB
0
ENDSEC
0
SECTION
2
BLOCKS
0
BLOCK
5
20
100
AcDbEntity
100
AcDbBlockBegin
2
*MODEL_SPACE
0
ENDBLK
5
21
100
AcDbEntity
100
AcDbBlockEnd
0
BLOCK
5
1C
100
AcDbEntity
100
AcDbBlockBegin
2
*PAPER_SPACE
0
ENDBLK
5
1D
100
AcDbEntity
100
AcDbBlockEnd
0
ENDSEC
0
SECTION
2
ENTITIES
0
LWPOLYLINE
5
100
100
AcDbEntity
8
0
100
AcDbPolyline
90
4
70
1
43
0.0
10
3.9402287427644844
20
-57.067904081110676
10
2.4952583007178299
20
-57.036461367046115
10
2.3395318857899561
20
-64.192970380696096
10
3.784502327836611
20
-64.224413094760664
0
LWPOLYLINE
5
101
100
AcDbEntity
8
0
100
AcDbPolyline
90
12
70
1
43
0.0
10
-3.2917796420097689
20
59.102973387380437
10
-1.7048655795097689
20
56.627387449880437
10
0.038298482990231086
20
56.627387449880437
10
-2.4079905795097689
20
60.309028074880437
10
-0.18142807950976891
20
63.785590574880437
10
-1.8562327670097689
20
63.785590574880437
10
-3.2624827670097689
20
61.485785887380437
10
-4.6980296420097689
20
63.785590574880437
10
-6.3874827670097689
20
63.785590574880437
10
-4.1706858920097689
20
60.362739012380437
10
-6.6169749545097689
20
56.627387449880437
10
-4.8835765170097689
20
56.627387449880437
0
LWPOLYLINE
5
102
100
AcDbEntity
8
0
100
AcDbPolyline
90
4
70
1
43
0.0
10
58.670484357731645
20
3.4813555489477839
10
57.225171857731645
20
3.4813555489477843
10
57.225171857731645
20
-3.6768475760522157
10
58.670484357731645
20
-3.6768475760522161
0
LWPOLYLINE
5
103
100
AcDbEntity
8
0
100
AcDbPolyline
90
4
70
1
43
0.0
10
2.1818531704902311
20
63.785590574880437
10
0.73654067049023109
20
63.785590574880437
10
0.73654067049023109
20
56.627387449880437
10
2.1818531704902311
20
56.627387449880437
0
LWPOLYLINE
5
104
100
AcDbEntity
8
0
100
AcDbPolyline
90
4
70
1
43
0.0
10
-62.148622104921678
20
3.3740499309161143
10
-63.593934604921678
20
3.3740499309161143
10
-63.593934604921678
20
-3.7841531940838857
10
-62.148622104921678
20
-3.7841531940838857
0
LWPOLYLINE
5
105
100
AcDbEntity
8
0
100
AcDbPolyline
90
7
70
1
43
0.0
10
1.8020630210873401
20
-57.02137736232595
10
0.2692227548621734
20
-56.988022591325027
10
-1.598546614917558
20
-62.246485413187997
10
-3.2943867812664007
20
-56.910478060017141
10
-4.8613986457832112
20
-56.876379711318748
10
-2.4591368457366016
20
-64.088550826893837
10
-0.91653326571382254
20
-64.12211804866547
0
LWPOLYLINE
5
106
100
AcDbEntity
8
0
100
AcDbPolyline
90
4
70
1
43
0.0
10
64.227124982731652
20
3.4813555489477821
10
62.781812482731645
20
3.481355548947783
10
62.781812482731645
20
-3.676847576052217
10
64.227124982731652
20
-3.6768475760522179
0
LWPOLYLINE
5
107
100
AcDbEntity
8
0
100
AcDbPolyline
90
4
70
1
43
0.0
10
61.448804670231645
20
3.4813555489477825
10
60.003492170231645
20
3.481355548947783
10
60.003492170231645
20
-3.676847576052217
10
61.448804670231645
20
-3.6768475760522175
0
LWPOLYLINE
5
108
100
AcDbEntity
8
0
100
AcDbPolyline
90
4
70
1
43
0.0
10
4.9601734829902311
20
63.785590574880437
10
3.5148609829902311
20
63.785590574880437
10
3.5148609829902311
20
56.627387449880437
10
4.9601734829902311
20
56.627387449880437
0
LWPOLYLINE
5
109
100
AcDbEntity
8
0
100
AcDbPolyline
90
12
70
1
43
0.0
10
-58.174012729921678
20
-1.3085672565838857
10
-56.587098667421678
20
-3.7841531940838857
10
-54.843934604921678
20
-3.7841531940838857
10
-57.290223667421678
20
-0.10251256908388573
10
-55.063661167421678
20
3.3740499309161143
10
-56.738465854921678
20
3.3740499309161143
10
-58.144715854921678
20
1.0742452434161143
10
-59.580262729921678
20
3.3740499309161143
10
-61.269715854921678
20
3.3740499309161143
10
-59.052918979921678
20
-0.04880163158388573
10
-61.499208042421678
20
-3.7841531940838857
10
-59.765809604921678
20
-3.7841531940838857
0
LWPOLYLINE
5
110
100
AcDbEntity
8
0
100
AcDbPolyline
90
6
70
1
43
0.0
10
36.265325730572137
20
-189.87341772151896
42
-3.5941561957217902
10
6.2172489379008766e-14
20
-167.99999999999997
42
0.75097194561218084
10
20.349048797972188
20
-97.907692307692344
42
0.025536450663254398
10
30.224344590365643
20
-95.32307692307694
42
-0.69323780122930123
10
5.773159728050814e-14
20
-175.99999999999997
42
3.5923906945234685
10
29.196975652928231
20
-193.62025316455697
42
0.028594868360156629
0
LWPOLYLINE
5
111
100
AcDbEntity
8
0
100
AcDbPolyline
90
6
70
1
43
0.0
10
-38.455687869266775
20
-178.63291139240511
42
-0.71109248246950341
10
3.1086244689504389e-14
20
-67.999999999999986
42
11.48615750660213
10
-23.148933800386459
20
-63.938461538461496
42
0.039261074151478531
10
-33.191087418517469
20
-68.369230769230768
42
-8.8127489165620272
10
3.1086244689504383e-14
20
-76
42
0.71565271774978834
10
-32.979170714398634
20
-172.75949367088603
42
0.041041060604470644
0
LWPOLYLINE
5
112
100
AcDbEntity
8
0
100
AcDbPolyline
90
6
70
1
43
0.0
10
46.221243098920148
20
-88.676923076923103
42
-0.64815272934634471
10
4.8849813083506888e-14
20
-191.99999999999994
42
4.2771277259887031
10
13.511874106440324
20
-198.68354430379742
42
0.0301836475682816
10
21.683422376566543
20
-196.55696202531644
42
-3.7222633596916599
10
6.4392935428259079e-14
20
-183.99999999999991
42
0.66413725274663016
10
38.608899240870869
20
-92.246153846153845
42
0.021028212425193524
0
LWPOLYLINE
5
113
100
AcDbEntity
8
0
100
AcDbPolyline
90
6
70
1
43
0.0
10
-47.635062418324068
20
-78.707692307692326
42
-7.3042197940274072
10
4.4408920985006262e-14
20
-92
42
0.77884328312915674
10
-18.043370278965931
20
-163.44303797468353
42
0.047780032534504718
10
-26.362782757007164
20
-167.69620253164555
42
-0.73345202969056666
10
4.4408920985006262e-14
20
-83.999999999999986
42
7.7937255314168556
10
-41.039464337830907
20
-73.292307692307645
42
0.030506758361000971
0
LWPOLYLINE
5
114
100
AcDbEntity
8
0
100
AcDbPolyline
90
4
70
1
43
0.0
10
42.896267077801291
20
-185.31645569620252
42
-1.6944025495731521
10
-42.896267077801269
20
-185.31645569620255
42
-0.42769659964485129
10
-53.293871002119282
20
-84.615384615384642
42
-3.4641016151377522
10
53.293871002119332
20
-84.615384615384599
42
-0.42769659964485168
0
LINE
5
115
100
AcDbEntity
8
0
100
AcDbLine
10
-32.25
20
55.858638544096266
30
0
11
-28.999999999999993
21
50.229473419497417
31
0
0
LINE
5
116
100
AcDbEntity
8
0
100
AcDbLine
10
-55.858638544096273
20
32.249999999999986
30
0
11
-50.229473419497417
21
28.999999999999989
31
0
0
LINE
5
117
100
AcDbEntity
8
0
100
AcDbLine
10
-55.858638544096308
20
-32.25
30
0
11
-50.229473419497452
21
-29.000000000000004
31
0
0
LINE
5
118
100
AcDbEntity
8
0
100
AcDbLine
10
-32.249999999999972
20
-55.858638544096266
30
0
11
-28.999999999999964
21
-50.229473419497424
31
0
0
LINE
5
119
100
AcDbEntity
8
0
100
AcDbLine
10
32.250000000000007
20
-55.858638544096266
30
0
11
28.999999999999989
21
-50.229473419497424
31
0
0
LINE
5
120
100
AcDbEntity
8
0
100
AcDbLine
10
55.85863854409628
20
-32.250000000000007
30
0
11
50.229489344676345
21
-28.999972416937126
31
0
0
LINE
5
121
100
AcDbEntity
8
0
100
AcDbLine
10
50.229473419497438
20
28.999999999999947
30
0
11
55.85863854409628
21
32.24999999999995
31
0
0
LINE
5
122
100
AcDbEntity
8
0
100
AcDbLine
10
28.729369484304243
20
49.760727616229616
30
0
11
31.979655746892995
21
55.389727457340555
31
0
0
ENDSEC
0
SECTION
2
OBJECTS
0
DICTIONARY
5
C
100
AcDbDictionary
3
ACAD_GROUP
350
D
3
ACAD_MLINESTYLE
350
17
0
DICTIONARY
5
D
100
AcDbDictionary
0
DICTIONARY
5
1A
330
C
100
AcDbDictionary
0
DICTIONARY
5
17
100
AcDbDictionary
0
ENDSEC
0
EOF
